Oops, an error
Loading. Please wait.

I Thought I Saw Your Face Today Bass Tab

655 views 1 this week
no commentswrite comment
1 2 3 4 5
please rate
add to favorites
launch autoscroll
font size
0
reset
guitar tuner
Tab Pro tools
  • play this tab
  • loop segment
  • change instrument
  • show fretboard
  • metronome
×
Best way to learn
"I Thought I Saw Your Face Today"
Autoscroll
slow
fast
+/-
esc
set tempo
stop
Contributor
++++++++++++++++++++++++++++++++++++++++++++++
| She & Him- I Thought I Saw Your Face Today |
++++++++++++++++++++++++++++++++++++++++++++++


"And I couldnt help but fall in love again..."

Tuning: EADG



Intro
"I thought I saw your face today..."
1.
G|-------7~-----------------------7~---------------7--------57-7~------------------|
D|-7~----------5~----6~---6-7~---------7-5~----6~----6-7~------------5~--5-4-2~----|
A|---------------------------------------------------------------------------------|
E|---------------------------------------------------------------------------------|

"And I couldnt help but fall in love again..."
2.
G|---------------------------------------------------|
D|--------------5~--5-4-2~-----------------5~--------|
A|-3~----/6~------------------3~----/6~--------------|
E|---------------------------------------------------|

Verse
"I saw it glitter as I grew..."
3.
G|-------7~--------------7~--------57-7~--------------------5---7-------------------|
D|-7~---------7-5~----6~-----6-7~-----------5~----6~----7~----7---7---5~--5-4-2~----|
A|----------------------------------------------------------------------------------|
E|----------------------------------------------------------------------------------|

"And I couldnt help but fall in love again..."
4.
G|-------------------------------------------------------|
D|--------------5~--5-4-2~-----------------5~----5-5~----|
A|-3~----/6~------------------3~----/6~------------------|
E|-------------------------------------------------------|

Chorus
"The cars and freeways..."
5.
G|----------------------------------------------------------------7~----|
D|---------------------------------------------5~----6~----7~---7-------|
A|-3~---3-6-6~---6-2~----2~----3~---3-6-6~---6--------------------------|
E|----------------------------------------------------------------------|

Bridge
6.
G|-------7-7~--------7------7------5--7~--------------------5--7-7~------------------|
D|-7~------------5~---5-6~---6-7~---7-------5~----6~----7~---7---------5~--5-4-2~----|
A|-----------------------------------------------------------------------------------|
E|-----------------------------------------------------------------------------------|

7.
G|-----------------------------------------------------|
D|--------------5~--5-4-2~-2~--------------5~-5~-------|
A|-3~-3~-/6~-6~---------------3~-3~-/6~-6~-------------|
E|-----------------------------------------------3~-3~-|

Chorus
"The cars and freeways..."
8.
G|----------------------------------------------------------------7~----|
D|---------------------------------------------5~----6~----7~---7-------|
A|-3~---3-6-6~---6-2~----2~----3~---3-6-6~---6--------------------------|
E|----------------------------------------------------------------------|

Verse
"I somehow see whats beautiful..."
9.
G|-------7~--------7------7--------7~--------7----------5---5-7-5~----------------|
D|-7~----------5~---5-6~---6-7~----------5~---5-6~----7---7---------5~--5-4-2~----|
A|--------------------------------------------------------------------------------|
E|--------------------------------------------------------------------------------|

"And I couldnt help but fall in love again..."
10.
G|----------------------------------------------------------|
D|---------------5~--5-4-2~-------------------5~--5-4-2~----|
A|-3~----5-6~------------------3~----5-/6~------------------|
E|----------------------------------------------------------|

Please rate thanks!!


Lyrics:

I thought I saw your face today 
but I just turned my head away 
Your face against the trees 
but I just see the memories as they come 
And I couldn't help but fall in love again 
No I couldn't help but fall in love again 

I saw it glitter as I grew 
and love did what I never knew 
I thought this place was heaven sent 
but now it's just a monument in my mind 

The cars and freeways implore me to stay way out of this place 
My mother said just keep your head and play as it plays 

I somehow see what's beautiful in things that are ephemeral 
I'm my only friend, am I? 
Love is just a piece of time in the world 



+++++++++++++++++++++++++++++++++
| Raileff                       |
| Underground__Dora@Hotmail.Com |
+++++++++++++++++++++++++++++++++
comments
We did not receive enough feedback on this tab! Please rate:
print report bad tab
1 2 3 4 5
I want to post or [tab]
guest
You may want to rate the tab now too:
select rating
Please do not post tabs as comments. Select "correction" instead!