Oops, an error
Loading. Please wait.

I Was Made For You Bass Tab

1,129 views 1 this week
1 commentread comment
1 2 3 4 5
excellent!
x 2
add to favorites
launch autoscroll
font size
0
reset
guitar tuner
Tab Pro tools
  • play this tab
  • loop segment
  • change instrument
  • show fretboard
  • metronome
Autoscroll
slow
fast
+/-
esc
set tempo
stop
Contributor
+++++++++++++++++++++++++++++++++
| She & Him- I Was Made For You |
+++++++++++++++++++++++++++++++++


"I thought I saw you lookin' my way 
So I thought I'd give you a try..."

Tuning: EADG



Intro
1.
G|-------------------------------------------------|
D|----------2-----------------------2--------------|
A|-3-3332-00-0----------2--3-3332-00-0----------2--|
E|-------------1-1101-33-3-------------1-1101-33-3-|

Verse
"I was taking a walk..."
2.
G|------------------------------------------------------------------------------------------------|
D|----------------------------------2-----------------------2-----------------------2-------------|
A|-3x-------------------2--3-3332-00-0----------2--3-3332-00-0----------2--3-3332-00-0----------2-|
E|-------------1-1101-33-3-------------1-1101-33-3-------------1-1101-33-3-------------1-1101-33-3|

Pre-Chorus
"When I saw you smile..."
3.
G|----------------------------------------------------------------------------|
D|----------------------------------------------------------------------------|
A|-------------------3~--33~--1~--11~-----------------------------------------|
E|-1~--11~--1~--11~--------------------1~--11~--1~--11~--3x----------------8\-|

Chorus
"Cause I have been waiting for a long long time..."
4.
G|-------------------------------------------------|
D|-------------3~--3-5~--5-------------3~--3-5~--5-|
A|-3~--3-0~--0-------------3~--3-0~--0-------------|--x2
E|-------------------------------------------------|

"Baby, baby..."
5.
G|------------------------------------|
D|-3~--33~--4~--44~--5x---------------|
A|------------------------------------|
E|------------------------------------|

Verse
"I was taking a walk..."
6.
G|------------------------------------------------------------------------------------------------|
D|----------2-----------------------2-----------------------2-----------------------2-------------|
A|-3-3332-00-0----------2--3-3332-00-0----------2--3-3332-00-0----------2--3-3332-00-0----------2-|
E|-------------1-1101-33-3-------------1-1101-33-3-------------1-1101-33-3-------------1-1101-33-3|

Pre-Chorus
"When I saw you smile..."
7.
G|----------------------------------------------------------------------------|
D|----------------------------------------------------------------------------|
A|-------------------3~--33~--1~--11~-----------------------------------------|
E|-1~--11~--1~--11~--------------------1~--11~--1~--11~--3x----------------8\-|

Chorus
"Cause I have been waiting for a long long time..."
8.
G|-------------------------------------------------|
D|-------------3~--3-5~--5-------------3~--3-5~--5-|
A|-3~--3-0~--0-------------3~--3-0~--0-------------|--x2
E|-------------------------------------------------|

"Baby, baby..."
9.
G|------------------------------------|
D|-3~--33~--4~--44~--5x---------------|
A|------------------------------------|
E|------------------------------------|

Outro
"I was made for you..."
10.
G|---------------------------------------------|
D|---------2---------------------2-------------|
A|-3~--3-00-0---------2--3~--3-00-0---------2--|
E|------------1~--1-33-3------------1~--1-33-3-|

11.
G|-5~--5-2~----------------5~--5-2~----------------|
D|-------------3~--3-5~----------------3~--3-5~----|
A|-------------------------------------------------|
E|-------------------------------------------------|

12.
G|-5~----------------|
D|-------------------|
A|-------------------|
E|-------------------|


Please rate thanks!!


Lyrics:

I was takin' a walk 
When I saw you pass by 
I thought I saw you lookin' my way 
So I thought I'd give you a try 

When I saw you smile 
I saw a dream come true 
So I asked you, maybe 
Baby whatcha gonna do? 

'Cause I have been waitin' for a long, long time 
For a boy like you 
I won't be waitin' any more cause I know 
Baby, baby 
I was made for you 



+++++++++++++++++++++++++++++++++
| Raileff                       |
| Underground__Dora@Hotmail.Com |
+++++++++++++++++++++++++++++++++
comments
We did not receive enough feedback on this tab! Please rate:
print report bad tab
1 2 3 4 5
1 comment total.
0 reply
Pale_Pilgrim wrote on April 27 2014, 01:09 am

Great tab. I just tweaked it and find it easier to read this way...

Intro
G|-------------------------------------------------|
D|----------2-----------------------2--------------|
A|-3-3332-00-0----------2--3-3332-00-0----------2--|
E|-------------1-1101-33-3-------------1-1101-33-3-|

Verse
G|--------------------------------------------------------------------|
D|----------------------------------2-----------------------2---------|
A|-3x-------------------2--3-3332-00-0----------2--3-3332-00-0--------|
E|-------------1-1101-33-3-------------1-1101-33-3-------------1-1101-|

G|-----------------------------|
D|---------------2-------------|
A|---2--3-3332-00-0----------2-|
E|-33-3-------------1-1101-33-3|

Pre-Chorus
G|----------------------------------------------------------------------------|
D|----------------------------------------------------------------------------|
A|-------------------3~--33~--1~--11~-----------------------------------------|
E|-1~--11~--1~--11~--------------------1~--11~--1~--11~--3x----------------8\-|

Chorus A
G|-------------------------------------------------|
D|-------------3~--3-5~--5-------------3~--3-5~--5-|
A|-3~--3-0~--0-------------3~--3-0~--0-------------| (x2)
E|-------------------------------------------------|

G|------------------------------------|
D|-3~--33~--4~--44~--5x---------------|
A|------------------------------------|
E|------------------------------------|

Repeat Intro (x2)

Repeat Pre-Chorus

Repeat Chorus

Outro (x2)
G|---------------------------------------------|
D|---------2---------------------2-------------|
A|-3~--3-00-0---------2--3~--3-00-0---------2--|
E|------------1~--1-33-3------------1~--1-33-3-|

G|-5~--5-2~----------------5~--5-2~----------------|
D|-------------3~--3-5~----------------3~--3-5~----|
A|-------------------------------------------------|
E|-------------------------------------------------|

End note
G|-5~----------------|
D|-------------------|
A|-------------------|
E|-------------------|

I want to post or [tab]
guest
You may want to rate the tab now too:
select rating
Please do not post tabs as comments. Select "correction" instead!