Oops, an error
Loading. Please wait.

In The Sun Bass Tab

1,186 views 3 this week
no commentswrite comment
1 2 3 4 5
please rate
add to favorites
launch autoscroll
font size
0
reset
guitar tuner
Tab Pro tools
  • play this tab
  • loop segment
  • change instrument
  • show fretboard
  • metronome
×
Best way to learn
"In The Sun"
Autoscroll
slow
fast
+/-
esc
set tempo
stop
Contributor
+++++++++++++++++++++++++
| She & Him- In The Sun |
+++++++++++++++++++++++++


"My baby, my darling I've been thinking of leaving..."

Tuning: Standard EADG


Intro
1.
G|-----------------------------------------------------------------|
D|-5-5~------------5-5~------------5-5~------------5-5~------------|
A|---------3333333---------3333333---------3333333---------3333333-|
E|-----------------------------------------------------------------|

Verse
"Its hard to be ignored..."
2.
G|----------------------------------------------------------------------|
D|--5-5-5-5-----1-1-2-2-2-2-5-5-5-5-------------------------------------|
A|----------3-3---------------------3-3-3-3-----0-0-0-0-0-0-0-0-5-5-5-5-|
E|------------------------------------------0-0-------------------------|

Chorus
"Well alright, its OK..."
3.
G|-------------------------------------------------------------------------|
D|-------------------------------------------------------------------------|
A|----------------------------00000000----------00000000-00300000-55305530-|
E|-33333333-22222222-11111111----------00000000----------------------------|

Outro
4.
G|-----------------------------------------------------------------|
D|-5-5~------------5-5~------------5-5~------------5-5~------------|
A|---------3333333---------3333333---------3333333---------3333333-|
E|-----------------------------------------------------------------|

Verse
"Its hard to take the blame..."
5.
G|-----------------------------------------------------------------------|
D|--5-5-5-5-----1-1-2-2-2-2----------------------------------------------|
A|----------3-3---------------------3-3-3-3-----0-0-0-0-0-0-0-0-55305555-|
E|--------------------------3-3-3-3---------0-0--------------------------|

Chorus
"Well alright, its OK..."
6.
G|-------------------------------------------------------------------------|
D|-------------------------------------------------------------------------|
A|----------------------------00000000----------00000000-00300000-55305530-|--x2
E|-33333333-22222222-11111111----------00000000----------------------------|

Outro
7.
G|-------------------------------------------------------------------------|
D|-55555555----------55555555----------55555555----------55555555----------|
A|----------33333333----------33333333----------33333333----------33333333-|
E|-------------------------------------------------------------------------|


Please rate thank you!!


Lyrics:


It's hard to be ignored
When I look at you, you look so bored 
My baby, my darling, I've been taking a beating

Well alright (well alright) 
It's okay (It's okay) 
We all get the slip sometimes every day 
I'll just keep it to myself in the sun 
In the sun 

It's hard to take the blame 
When I look at you, you're so ashamed 
My baby, my darling, I've been thinking of leaving 

Well alright (well alright) 
It's okay (It's okay) 
We all feel ashamed sometimes every day 
I'll just keep it to myself in the sun 
In the sun



+++++++++++++++++++++++++++++++++
| RaiLeff                       |
| Underground__Dora@Hotmail.Com |
+++++++++++++++++++++++++++++++++
comments
We did not receive enough feedback on this tab! Please rate:
print report bad tab
1 2 3 4 5
I want to post or [tab]
guest
You may want to rate the tab now too:
select rating
Please do not post tabs as comments. Select "correction" instead!