Oops, an error
Loading. Please wait.

Why Do You Let Me Stay Here Bass Tab

version 1
version 1

Whole song

Interactive

3,107 views 1 this week
no commentswrite comment
1 2 3 4 5
not so good
x 3
add to favorites
launch autoscroll
font size
0
reset
guitar tuner
Tab Pro tools
  • play this tab
  • loop segment
  • change instrument
  • show fretboard
  • metronome
Autoscroll
slow
fast
+/-
esc
set tempo
stop
Contributor
Artist: She & Him
Song: Why Do You Let Me Stay Here
Album: Volume One
Composer: Zooey Deschanel
Tuning: Standard

Intro
|-------------------------|
|-------------------------|
|-------------------------|
|-3--3--2--2--4--4--8--6--|

|-------------------------|
|-------------------------|
|-------------------------|
|-3--3--2--2--4--4--8--6--|

Verse
|-------------------------|
|-------------------------|
|-------------------------|
|-3--3--2--2--4--4--8--6--|

|-------------------------|
|-------------------------|
|-------------------------|
|-3--3--2--2--4--4--8--6--|

|-------------------------|
|-------------------------|
|-------------------------|
|-3--3--2--2--4--4--4--4--|

|-------------|
|-------------|
|-------------|
|-6--6--6--6--|

Repeat these as needed and there you go
comments
We did not receive enough feedback on this tab! Please rate:
print report bad tab
1 2 3 4 5
I want to post or [tab]
guest
You may want to rate the tab now too:
select rating
Please do not post tabs as comments. Select "correction" instead!