Oops, an error
Loading. Please wait.

Tear You Apart bass

version 1
version 1

Whole song

Interactive

12,559 views 9 this week
4 commentsread comments
1 2 3 4 5
x 6
add to favorites
×
Save as Personal and add changes to this tab that will be seen only by you. Learn more ›
×
You can save this tab as Personal to edit and correct it or add notes. All changes will be seen only by you. Learn more »
launch autoscroll
font size
0
reset
guitar tuner
backing track
0:00
0:00
edit
Autoscroll
slow
fast
+/-
esc
set tempo
stop
right this is my first tab so if it looks slightly confusing dont be suprised

it sounds right w/ the music

hope it isnt too confusing

no bass in intro

main riff:

G--------------------------------------------------|
D--------------------------------------------------|
A--------------------------------------------------|
C--6-6-6-6-6-8-5-5-5-5-5-6-4-4-4-4-4-6-3-3-3-3-0-1-|

G--------------------------------------------------|
D--------------------------------------------------|
A--------------------------------------------------|
C--6-6-6-6-6-8-5-5-5-5-5-6-4-4-4-4-4-6-3-3-3-3-9999|

bridge:

G--------------|
D--------------|
A--------------|repeat 3 times
C--6-5-4-3-0-1-|

play this on fourth time

G--------------|
D--------------|
A--------------|
C--6-5-9-8-0-1-|

song structure:

intro(no bass)

main riff x3

1st half of main riff

rest for about 9 seconds

2nd half of main riff

main riff x2

1st half of main riff

rest for about 5 seconds

bridge

1st half of main riff x3

            
            
Suggest correction
Creating personal tab
Creating personal tab
You can edit any tab online and save it as your Personal.

You can edit, replace or remove any tab part or add personal notes – all changes will be seen only by you.

Personal tabs can be accessed anytime from any device, even offline.
Learn more »
comments
print report bad tab
4 comments total. Showing first comments.
0 reply
Creative-Noise 168 Oct 31, 2007 03:49 PM

Hey, i haven't checked the notes myself but they seem about right... But i think it's most likely played on a 5-string bass... then you wouldn't need to tune down and you wouldn't have to play it on only one string. Worth trying if you have access to a 5-string.

+1 reply
Creative-Noise 168 Jan 01, 2008 02:01 PM

ok, tried it out. the notes all sound right, and it works great with a 5-string.

+1 reply
razor132 31 Mar 04, 2008 12:11 PM

yeah just play it on the b string and move it all up one fret, works great nice tab

guest
You may want to rate the tab now too:
select rating
Wanna post a correction for this tab? Suggest correction