Oops, an error
Loading. Please wait.

Tear You Apart tab

version 1
version 1

Whole song

Interactive

20,811 views 30 this week
8 commentsread comments
1 2 3 4 5
x 3
add to favorites
×
Save as Personal and add changes to this tab that will be seen only by you. Learn more ›
×
You can save this tab as Personal to edit and correct it or add notes. All changes will be seen only by you. Learn more »
launch autoscroll
font size
0
reset
how to read this tab
guitar tuner
backing track
0:00
0:00
edit
Autoscroll
slow
fast
+/-
esc
set tempo
stop
Author
Difficulty
Unregistered
Okay I haven't seen this song anywhere else and I tabbed it out. Play along with it, I 
it's an easy song to play.


Tuning: E A D G B E (Standard)
Difficulty: Easy
Song: Tear You Apart by She Wants Revenge

[Intro]
(minor pick scrapes and palm mutes)
---------------------------------------|E
---------------------------------------|B
---------------------------------------|G
---------------------------------------|D
---------------------------------------|A
(pick scrapes)-------------------------|E

Guitar comes in about 1:04 after song starts:

(Verse 1 and 2 and Middle part)
---------------------------------------------|E
---------------------------------------------|B
---------------------------------------------|G
---------------------------------------------|D
---------------------------------------------|A
-2-2-2-2-2-2-(several times)-----------------|E

Sometimes riff changes to this (listen to song)
-------------|E
-------------|B
-------------|G
-------------|D
-------------|A
-2/5---------|E


[Chorus]
---------------------------------|E
---------------------------------|B
---------------------------------|G
---------------------------------|D
---------------------------------|A
-2-2-2-2-2-2-2-2-2-2-2-2-2-2-2---|-E

---------------------------------|E
---------------------------------|B
---------------------------------|G
---------------------------------|D
---------------------------------|A
9-9-9-9-9-9-9-9-9-9-9-9-9-9-9\---|E


----------------------------------|E
----------------------------------|B
----------------------------------|G
----------------------------------|D
----------------------------------|A
7-7-7-7-7-7-7-7-7-7-7-7-7-7-7-7---|E


----------------------------------|E
----------------------------------|B
----------------------------------|G
----------------------------------|D
----------------------------------|A
5-5-5-5-5-5-5-5-5-5-5-5-5-5-5-5---|E

The chorus, it's just that really, there really isn't much.

The middle part is the same thing as the verse with that slide to the 5th fret, just 
to the song to hit it at the right time.

If I catch anything else from this song I'll update it.

thevoidmadison24@hotmail.com
if you have any questions


************************************

| /  Slide up
| \  Slide down

************************************

            
            
Suggest correction
Creating personal tab
Creating personal tab
You can edit any tab online and save it as your Personal.

You can edit, replace or remove any tab part or add personal notes – all changes will be seen only by you.

Personal tabs can be accessed anytime from any device, even offline.
Learn more »
Give kudos to tab author, rate the tab!
1 2 3 4 5
comments
print report bad tab
8 comments total. Showing first comments.
+2 reply
stupid10111 10 Jul 29, 2006 01:09 PM

i love this song!!!

+3 reply
Homestar1m 31 Apr 10, 2008 05:36 PM

I like it... this is a good start for a full tab... as for you emo haters... ease up a little, will ya?

+1 reply
RockAddict311 161 Jan 22, 2009 11:08 AM

Yah whats the deal? Is this song to dark for u kids?

guest
Wanna post a correction for this tab? Suggest correction