Oops, an error
Loading. Please wait.

These Things tab

version 1
version 1

Whole song

6,600 views 12 this week
no commentswrite comment
1 2 3 4 5
x 7
add to favorites
×
Save as Personal and add changes to this tab that will be seen only by you. Learn more ›
×
You can save this tab as Personal to edit and correct it or add notes. All changes will be seen only by you. Learn more »
launch autoscroll
font size
0
reset
how to read this tab
guitar tuner
backing track
0:00
0:00
edit
Autoscroll
slow
fast
+/-
esc
set tempo
stop
"These Things" by She Wants Revenge

I'm not 100% sure that the intro part two/interlude is correct but I think it's close.  
the bridge-chorus is probably not very accurate but at least it's a start.  Listen to 
song for the correct timing.

INTRO PART TWO/INTERLUDE

E|--------------------------------|--------------------------------|
B|--------------------------------|--------------------------------|
G|--------------------------------|--------------------------------|
D|-----------------3-3-3-3-3------|-----------------3-3-3-3-3------|
A|---------------------------1-4-1|---------------------------1-4--|
E|--------------------------------|-------------------------------2|

E|--------------------------------|--------------------------------|
B|--------------------------------|--------------------------------|
G|--------------------------------|--------------------------------|
D|-----------------3-3-3-3-3------|--------------------------------|
A|---------------------------1-4--|--------------------------------|
E|-------------------------------0|-2-2-2-2-2-2-2-2-2-2-2-2-4-4-4-4|

CHORUS

E|--------------------------------|--------------------------------|
B|--------------------------------|--------------------------------|
G|-3-3-3-3-3-3-3-3-3-3-3-3-3-3-3-3|-6-6-6-6-6-6-6-6-6-6-6-6-6-6-6-6|
D|-3-3-3-3-3-3-3-3-3-3-3-3-3-3-3-3|-6-6-6-6-6-6-6-6-6-6-6-6-6-6-6-6|
A|-1-1-1-1-1-1-1-1-1-1-1-1-1-1-1-1|-4-4-4-4-4-4-4-4-4-4-4-4-4-4-4-4|
E|--------------------------------|--------------------------------|

E|--------------------------------|--------------------------------|
B|--------------------------------|--------------------------------|
G|-5-5-5-5-5-5-5-5-5-5-5-5-5-5-5-5|-4-4-4-4-4-4-4-4-4-4-4-4-4-4-4-4|
D|-5-5-5-5-5-5-5-5-5-5-5-5-5-5-5-5|-4-4-4-4-4-4-4-4-4-4-4-4-4-4-4-4|
A|-3-3-3-3-3-3-3-3-3-3-3-3-3-3-3-3|-2-2-2-2-2-2-2-2-2-2-2-2-2-2-2-2|
E|--------------------------------|--------------------------------|

BRIDGE-CHORUS (after verse two or four, depending on how one looks at it)

E|--------------------------------|--------------------------------|
B|--------------------------------|--------------------------------|
G|--------------------------------|--------------------------------|
D|-------------------------3------|-------------------------3------|
A|---------------------------1-4-1|---------------------------1-4--|
E|--------------------------------|-------------------------------2|

E|--------------------------------|--------------------------------|
B|--------------------------------|--------------------------------|
G|--------------------------------|--------------------------------|
D|-------------------------3------|-----------------------3--------|
A|---------------------------1-4--|-------------------------1-4----|
E|-------------------------------0|-----------------------------2-4|

            
            
Suggest correction
Creating personal tab
Creating personal tab
You can edit any tab online and save it as your Personal.

You can edit, replace or remove any tab part or add personal notes – all changes will be seen only by you.

Personal tabs can be accessed anytime from any device, even offline.
Learn more »
comments
print report bad tab
guest
Wanna post a correction for this tab? Suggest correction