Oops, an error
Loading. Please wait.

What I Want tab

946 views 1 this week
3 commentsread comments
1 2 3 4 5
2 more votes to show rating
add to favorites
×
Save as Personal and add changes to this tab that will be seen only by you. Learn more ›
×
You can save this tab as Personal to edit and correct it or add notes. All changes will be seen only by you. Learn more »
launch autoscroll
font size
0
reset
how to read this tab
guitar tuner
edit
Autoscroll
slow
fast
+/-
esc
set tempo
stop
Author
Difficulty
"What I want" by She Wants Revenge

This is my first tab, and I'm not sure whether it'll even be seen, these guys aren't too 
It's a great song though. I'm not 100% sure about it, but I think they are using an 
pedal. It all sounds good when played with the music though, and the violin solo sounds good too.

Intro
e|-----------------------------------------------------------------|
B|-----------------------------------------------------------------|
G|-----------------------------------------------------------------|
D|--5--------------5--------------5--------------5-----------------|
A|--3--0-0--0-0-0--3--0-0--0-0-0--3--0-0--0-0-0--3--0-0--0-0-0-----|
E|-----------------------------------------------------------------|

e|-----------------------------------------------------------------|
B|-----------------------------------------------------------------|
G|--5--------------5-----------------------------------------------|
D|--3--0-0--0-0-0--3--0-0--0-0-0--5--------------5-----------------|
A|--------------------------------3--0-0--0-0-0--3--0-0--0-0-0-----|
E|-----------------------------------------------------------------|

Verse: (3x)
e|-----------------------------------------------------------------|
B|-----------------------------------------------------------------|
G|-----------------------------------------------------------------|
D|-----0-0--0-0-----0-0--0-0---------------------------------------|
A|--3------------3------------3--0-0--0-0--3--0--------------------|
E|-----------------------------------------------3--1--------------|

(Bass Plays)
e|-----------------------------------------------------------------|
B|-----------------------------------------------------------------|
G|-----------------------------------------------------------------|
D|--------------------------5--------------5-----------------------|
A|--------------------------3--0-0--0-0-0--3--0-0--0-0-0-----------|
E|-----------------------------------------------------------------|

Chorus:
e|------------------------------------------------------------------|
B|------------------------------------------------------------------|
G|------------------------------------------------------------------|
D|--------------------------0-0-0-0-3-3-3-3-3-3-3-3-3-3-3-3-3-3-3-3-|
A|--0-0-0-0-0-0-0-0-3-3-3-3-----------------------------------------|
E|------------------------------------------------------------------|

e|------------------------------------------------------------------|
B|------------------------------------------------------------------|
G|------------------------------------------------------------------|
D|--0-0-0-0---------------------------------------------------------|
A|----------3-3-3-3-0-0-0-0-0-0-0-0-3-3-3-3-3-3-3-3-3-3-3-3-3-3-3-3-|
E|------------------------------------------------------------------|

Verse (3x)
Chourus (2x)

Violin Solo (Tabbed for guitar)
e|--------------------------------13-12---------13-12-13-----------|
B|--10-12-13-12-10-12-13-12-10-10--------10-10---------------------|
G|-----------------------------------------------------------------|
D|-----------------------------------------------------------------|
A|-----------------------------------------------------------------|
E|-----------------------------------------------------------------|

e|--15-13-12-15-15-13-10-12-13-------------------------------------|
B|------------------------------10-12-13-12-10-12-13-12-10---------|
G|-----------------------------------------------------------------|
D|-----------------------------------------------------------------|
A|-----------------------------------------------------------------|
E|-----------------------------------------------------------------|

e|--------------------------------13-12---------13-12-13-----------|
B|--10-12-13-12-10-12-13-12-10-10--------10-10---------------------|
G|-----------------------------------------------------------------|
D|-----------------------------------------------------------------|
A|-----------------------------------------------------------------|
E|-----------------------------------------------------------------|


e|-15-13-12-15-15-13-10-12-13-----------13-12-10--------10---------------|
B|----------------------------13-12-10---------13-12-10----13-12-10-7-10-|
G|-----------------------------------------------------------------------|
D|-----------------------------------------------------------------------|
A|-----------------------------------------------------------------------|
E|-----------------------------------------------------------------------|

Chorus (1x)
Suggest correction
Creating personal tab
Creating personal tab
You can edit any tab online and save it as your Personal.

You can edit, replace or remove any tab part or add personal notes – all changes will be seen only by you.

Personal tabs can be accessed anytime from any device, even offline.
Learn more »
Give kudos to tab author, rate the tab!
1 2 3 4 5
comments
print report bad tab
3 comments total.
0 reply
soccerholden13 10 Mar 10, 2010 12:54 PM

great song. your tab was not going unnoticed forever bud.

0 reply
soccerholden13 10 Mar 10, 2010 01:14 PM

oh btw I dont think the chorus is right but I also dont know how it should go. sounds like more strings are involved than just one when I listen to the song.

0 reply
Daytman 31 Apr 02, 2010 02:23 PM

Well I saw them live (over a year after making this tab) and watched them play it (I was on the stage) and just about every part of this tab is absolutely wrong. So I don't know what to say haha

guest
You may want to rate the tab now too:
select rating
Wanna post a correction for this tab? Suggest correction