Oops, an error
Loading. Please wait.

Insolence Chords

16 views 1 this week
no commentswrite comment
1 2 3 4 5
3 more votes to show rating
add to favorites
launch autoscroll
font size
0
reset
transpose
0
reset
display chords
guitar tuner
Autoscroll
slow
fast
+/-
esc
set tempo
stop
Help us to improve Ultimate-Guitar.com Take our survey!
×
Author
Shearwater - Insolence

-------------------------------------------------------------------------------------------------------------

[Intro] 
e|-------0--------|--------0-------|
B|-----7----------|-----10---------|
G|---8------8-----|---11------11---|
D|-6----------6---|-9-----------9--| x2
A|----------------|----------------|
E|----------------|----------------|


[Verse 1]
e|-------0--------|
B|-----7----------|
G|---8------8-----|
D|-6----------6---|
A|----------------|
E|----------------|
Sometimes I think I welcome it,

e|--------0-------|
B|-----10---------|
G|---11------11---|
D|-9-----------9--|
A|----------------|
E|----------------|
what you are frightened of.

e|-------0--------|
B|-----7----------|
G|---8------8-----|
D|-6----------6---|
A|----------------|
E|----------------|
My thoughts become undisciplined

e|--------0-------|
B|-----10---------|
G|---11------11---|
D|-9-----------9--|
A|----------------|
E|----------------|
And then I slip away.


[Pre-Chorus]
               A
It is effortless.
        E
Effortless.


[Intro]
e|-------0--------|--------0-------|
B|-----7----------|-----10---------|
G|---8------8-----|---11------11---|
D|-6----------6---|-9-----------9--|
A|----------------|----------------|
E|----------------|----------------|


[Verse 2]
e|-------0--------|
B|-----7----------|
G|---8------8-----|
D|-6----------6---|
A|----------------|
E|----------------|
In the glow along the barren road

e|--------0-------|
B|-----10---------|
G|---11------11---|
D|-9-----------9--|
A|----------------|
E|----------------|
I see you shivering

e|-------0--------|
B|-----7----------|
G|---8------8-----|
D|-6----------6---|
A|----------------|
E|----------------|
My heart begins to separate

e|--------0-------|
B|-----10---------|
G|---11------11---|
D|-9-----------9--|
A|----------------|
E|----------------|
From the signs that would bury our lives


[Chorus]
                A      
With an insolence. (Once beats and the light is close, close.)
        E
Insolence.
                A
Effortless ranging and diving. (Once beats and the light is close, close.)
        Em
Effortless as fire.
 

[Pre-Outro]
Ab  F#  E     (x3)

Abm
Oh, child.
Abm
Where were you?
Abm
Where were you 
        E       
all your life?
                        F#      Abm F# E
All your life inside a chrysalis writhi—ing?

F#  A   
Abm F# E   F#  A      (x2)


[Outro]
Abm F# E  
And it's real.
F#  A
It's real.
Abm F# E
Joy is real.
F#  A
One more time.
Abm F# E
It's real.
F#  A
Joy is real.
Abm F# E
Joy is real.
F#  A
One more time.
Abm F# E
It's real.
F#  A
Joy, it's so real. 

(Fade)



Suggest correction
Give kudos to tab author, rate the tab!
1 2 3 4 5
comments
print report bad tab
guest
You may want to rate the tab now too:
select rating
Wanna post a correction for this tab? Suggest correction