Oops, an error
Loading. Please wait.

Three Year Bitch tab

109 views 1 this week
no commentswrite comment
1 2 3 4 5
3 more votes to show rating
add to favorites
×
Save as Personal and add changes to this tab that will be seen only by you. Learn more ›
×
You can save this tab as Personal to edit and correct it or add notes. All changes will be seen only by you. Learn more »
launch autoscroll
font size
0
reset
how to read this tab
guitar tuner
edit
Autoscroll
slow
fast
+/-
esc
set tempo
stop
Author
Difficulty
[Count-in]

 e |--------------------------|
 B |--------------------------|
 G |--------------------------|
 D |--------------------X-----|
 A |--------------------X-----|
 E |--------------------X-----|


[Intro]

|--------------------------|
|--------------------------|
|--------------------------|
|--2-----------------------|
|--2-----------------------|
|--0-----------------------|


|--------------------------|--------------------------|--------------------------|--------------------------|
|--------------------------|--------------------------|--------------------------|--------------------------|
|--9-----------------------|--------------------------|--------------------------|--------------------------|
|--9-----------------------|--------------------------|--------------------------|--------------------------|
|--7-----------------------|--------------------------|--------------------8--7--|--------7--5--------3-----|
|--------------------------|--------------------------|--------------------6--5--|--------5--3--------1-----|


[Verse]

|--------------------------|--------------------------|--------------------------|--------------------------|
|--------------------------|--------------------------|--------------------------|--------------------------|
|--------------------------|--------------------------|--------------------------|--------------------------|
|--------------------------|--------------------------|--------------------------|--------------------------|
|--2-----------------5--4--|--------------------7--5--|--------------------8--7--|--------7--5--------3-----|
|--0-----------------3--2--|--------------------5--3--|--------------------6--5--|--------5--3--------1-----|

   On the very night of my attempted suicide
   You went out dancing underneath all those neon lights of 109
   What was I to do, when all my trust was placed in you?
   You led me down an open road, and then you left me all alone to die
   And then there were the times you tried to put me in my place
   I don't know if I wanted to kiss you...or spit right in your face


[Chorus]

|--------------------------|--------------------------|--------------------------|--------------|
|--------------------------|--------------------------|--------------------------|--------------|
|--------------------------|--------------------------|--------------------------|--------------|
|--------------------------|--------------------------|--------------------------|--------------|
|--5-----------------------|--5~(7)(5)~~--3~~~~~~~~~--|--8--8--8--7-----7--7--7--|--3-----3-----|
|--3-----------------------|--------------------------|--6--6--6--5-----5--5--5--|--1-----1-----|

   You could've shown some heart
   You couldn't wet an eye
   And you didn't give a fuck


[Bridge]

|--------------------------|--------------------------|--------------------------|--------------------------|
|--------------------------|--------------------------|--------------------------|--------------------------|
|--------------------------|--------------------------|-----------------9--------|-----------------9--------|
|--------------------------|-----------------------9--|--------9--9--9--9--9--9--|--9--9--9--9--9--9--9--9--|
|--7-----7-----7-----7--10-|--------10----10----10-7--|--------7--7--7--7--7--7--|--7--7--7--7--7--7--7--7--|
|--5-----5-----5-----5--8--|--------8-----8-----8-----|--------------------------|--------------------------|

   If I'd live or die

   I fought the sleep and I stopped the blood
   But I just couldn't choke back those tears
   I turned to you, you screamed out loud
   And you left me standing here


[Break]

|--------------------------|
|--------------------------|
|--------------------------|
|--2-----------------------|
|--2-----------------------|
|--0-----------------------|


|--------------------------|--------------------------|--------------------------|--------------------------|
|--------------------------|--------------------------|--------------------------|--------------------------|
|--9-----------------------|--------------------------|--------------------------|--------------------------|
|--9-----------------------|--------------------------|--------------------------|--------------------------|
|--7-----------------------|--------------------------|--------------------8--7--|--------7--5--------3-----|
|--------------------------|--------------------------|--------------------6--5--|--------5--3--------1-----|


[Verse 2]

|--------------------------|--------------------------|--------------------------|--------------------------|
|--------------------------|--------------------------|--------------------------|--------------------------|
|--------------------------|--------------------------|--------------------------|--------------------------|
|--------------------------|--------------------------|--------------------------|--------------------------|
|--2-----------------5--4--|--------------------7--5--|--------------------8--7--|--------7--5--------3-----|
|--0-----------------3--2--|--------------------5--3--|--------------------6--5--|--------5--3--------1-----|

   Before you burn the bridge down, there's just one thing that I'd like to know:
   Did it have to take you three long motherfucking years just to let me go?
   I once believed in forever--I guess I'd seen it in your eyes
   But you abandoned me to those false hopes and unsevered ties
   And now I'm left with nightmares, and no reason why
   It had to take you three years just to say goodbye


[Outro]

|--------------------|--------------------|--------------------|--------------------|
|--------------------|--------------------|--------------------|--------------------|
|--------------------|--------------------|--------------------|--------------------|
|--2-----------------|--------------------|--------------------|--------------------|
|--2-----------------|--------------------|--------------------|--------------------|
|--0-----------------|--------------------|--------------------|--------------------|


|--------------------|--------------------|--------------------|--------------------|
|--------------------|--------------------|--------------------|--------------------|
|--------------------|--------------------|--------------------|--------------------|
|-(2)----------------|--------------------|--------------------|--------------------|
|-(2)----------------|--------------------|--------------------|--7--8--7--8-----7--|
|-(0)----------------|--------------------|--------------------|--5--6--5--6-----5--|


|--------------------|--------------------|--------------------|--------------------|
|--------------------|--------------------|--------------------|--------------------|
|--------------------|--------------------|--------------------|--------------------|
|--2-----------------|--------------------|--------------------|--------------------|
|--2-----------------|--------------------|--------------------|--------------------|
|--0-----------------|--------------------|--------------------|--------------------|


|--------------------|--------------------|--------------------|--------------------|
|--------------------|--------------------|--------------------|--------------------|
|--------------------|--------------------|--------------------|--------------------|
|--------------------|--------------------|--------------------|--------------------|
|--7p-5h-7p-5h-7p-5h-|--7p-5h-7p-5h-7p-5h-|--7p-5h-7p-5~~~~~~--|--7--8--7--8-----7--|
|--------------------|--------------------|--------------------|--5--6--5--6-----5--|



|--------------------|--------------------|--------------------|--------------------|
|--------------------|--------------------|--------------------|--------------------|
|--------------------|--------------------|--------------------|--------------------|
|--------------------|--------------------|--9-----------------|--------------------|
|--2-----------------|-----------5--7--5--|--7-----------------|-----------5--7--5--|
|--0--------0-----0--|--0-----0--3--5--3--|-----------0-----0--|--0-----0--3--5--3--|

|--------------------|--------------------|--------------------|--------------------|
|--------------------|--------------------|--------------------|--------------------|
|--------------------|--------------------|--------------------|--------------------|
|--9-----------------|--------------------|--9-----------------|--------------------|
|--7-----------------|-----------5--7--5--|--7-----------------|--7--8--7--8--------|
|-----------0-----0--|--0-----0--3--5--3--|-----------0-----0--|--5--6--5--6--------|

   I hope I never have to see your face again--I don't know what I'd do
   What I don't know won't hurt me--what I find out just might kill you


|--------------------|--------------------|--------------------|--------------------|
|--------------------|--------------------|--------------------|--------------------|
|--------------------|--------------------|--------------------|--------------------|
|--------------------|--------------------|--------------------|--------------------|
|-----------8--------|--7--------3-----2--|--------------------|--------------------|
|--0--0--0--6--0--0--|--5--0--0--1-----0--|--------------------|--------------------|

                                       I'd...

|--------------------|--------------------|--------------------|--------------------|
|--------------------|--------------------|--------------------|--------------------|
|--------------------|--------------------|--------------------|--------------------|
|--------------------|--------------------|--9-----------------|--------------------|
|--2-----------------|-----------5--7--5--|--7-----------------|-----------5--7--5--|
|--0--------0-----0--|--0-----0--3--5--3--|-----------0-----0--|--0-----0--3--5--3--|

|--------------------|--------------------|--------------------|--------------------|
|--------------------|--------------------|--------------------|--------------------|
|--------------------|--------------------|--------------------|--------------------|
|--9-----------------|--------------------|--9-----------------|--------------------|
|--7-----------------|-----------5--7--5--|--7-----------------|--7--8--7--8-----7--|
|-----------0-----0--|--0-----0--3--5--3--|-----------0-----0--|--5--6--5--6-----5--|

   ...like to know the answer to this question, before I fall apart:
   Did it have to take you three fucking years just to break my heart?


|--------------------|--------------------|
|--------------------|--------------------|
|--------------------|--------------------|
|--------------------|--------------------|
|-----------8--------|--7--------3-----2--|
|--0--0--0--6--0--0--|--5--0--0--1-----0--|


*********************************** 
| h   Hummer-on
| p   Pull-off
| ~   Vibrato
|(n)  Ghost note
*********************************** 

            
            
Suggest correction
Creating personal tab
Creating personal tab
You can edit any tab online and save it as your Personal.

You can edit, replace or remove any tab part or add personal notes – all changes will be seen only by you.

Personal tabs can be accessed anytime from any device, even offline.
Learn more »
Give kudos to tab author, rate the tab!
1 2 3 4 5
comments
print report bad tab
guest
You may want to rate the tab now too:
select rating
Wanna post a correction for this tab? Suggest correction