Oops, an error
Loading. Please wait.

Howzat bass

by Sherbet
2,455 views 9 this week
1 commentread comment
1 2 3 4 5
x 8
add to favorites
×
Save as Personal and add changes to this tab that will be seen only by you. Learn more ›
×
You can save this tab as Personal to edit and correct it or add notes. All changes will be seen only by you. Learn more »
launch autoscroll
font size
0
reset
guitar tuner
edit
Autoscroll
slow
fast
+/-
esc
set tempo
stop
Author
Difficulty
Howzat
Original artists Australian band Sherbet recorded and released
this song in 1976. Number 1 in Oz and New Zealand, number 4
in UK and a top ten hit all over Europe.
Original bassist Tony Mitchell. Tabbed by bass50611
Tried to tab it as per recording, think its 98% right. Fantastic
Bassline, have fun.  Any comments its bass254@btinternet.com
27th April 2015 Revamped the verse

Intro:
     .                                             (Pause)
G|-----------------------------------------------------|
D|-----------------------------------------------------|
A|---6-------------4-5---------4-5---------4-5---------|
E|-----------2-3---------2-3---------2-3---------2-3---|

Verse:
G|----------------------------------------------------------|
D|------------------------------------------------------2-3-|
A|-------4-5---------4-5----------5-6--------5-6---0-1------|
E|-2-3---------2-3----------3-4---------3-4-----------------|

                       (Pause)
G|---------3-3----5-5----|
D|------2-3-3----5-5-5---|
A|-0-1--------3--------3-|
E|-----------------------|

Repeat Verse:

Chorus 1:
G|----------------------------------------------------------------|
D|------------3-3--3-3--------------5---5-------------0-2-3-3--33-|
A|-3-3--3-3------3------3-5-5--5-5---------0-2-3-3--33-------3----|
E|----3----------------------5-----------3--------3---------------|

                                       (Pause)
G|---------------------------------------|
D|-------------0-2-3-3--3-3---5555555----|
A|-0-2-3-3--33--------3--------------5---|
E|--------3----------------------------3-|

Repeat Verse:

Chorus 2:
G|----------------------------------------------------------------|
D|------------3-3--3-3--------------5---5-------------0-2-3-3--33-|
A|-3-3--3-3------3------3-5-5--5-5---------0-2-3-3--33--------3---|
E|----3----------------------5-----------3--------3---------------|

G|------------------------------------------------------------------|
D|-------------0-2-3-3--3-3-----------------------------------------|
A|-0-2-3-3--33--------3-----3-3--3-3-3---5-5--5-5-5---6-5-6-5-6-5-6-|
E|--------3---------------------3------------5----------------------|

G|------------------------------------------------12-|
D|---------------------------------------------------|
A|-8-6-8-6-8-6-8---10-10--10-10--10-10--10-10---10---|
E|---------------------------------------------------|

Solo:                                                                  (Pause)
G|------------------------------------------------------------------------|
D|------------------------------------------------------------------------|
A|-----4-5------4-5------4-5------4-5-3-------4-5------4-5------4-5---4-6-|
E|-2-3------2-3------2-3------2-3-------5-2-3------2-3------2-3-----------|

Verse 4:
G|-------------------------------------------|
D|-------------------------------------------|
A|------4-5-------4-5-------4-5------4-5-3---|
E|-2-3-------2-3-------2-3-------2-3-------5-|

G|---------------------------------------------------------|
D|-----------------------------------------------------2-3-|
A|-------4-5---------4-5---------5-6--------5-6---0-1------|
E|-2-3---------2-3---------3-4--------3-4------------------|

                        (Pause)    
G|---------3-3------5-5----|
D|------2-3-3------5-5-5---|
A|-0-1---------3---------3-|
E|-------------------------|

Chorus 3 into key change:
G|-----------------------------------------------------------------|
D|------------3-3--3-3--------------5---5-------------0-2-3-3--3-3-|
A|-3-3--3-3------3------3-5-5--5-5---------0-2-3-3--33--------3----|
E|----3----------------------5------------3-------3----------------|

G|------------------------------------------------------------------|
D|-7-7-7-7-------------------5-5--5-5--------------7----------------|
A|---------0-2-3-4-5-5--5-5-----5------5-7-7--7-7----0-234-5-5--5-5-|
E|--------------------5---------------------7-----------------5-----|


G|-------------------------------------------------------------------|
D|-5-5--5-5------------5-5--5-5--------------------------------------|
A|----5------5-5--5-5-----5------5-5--5-5---7-7--7-7---8-7-8-7-8-7-8-|
E|--------------5-------------------5----------7---------------------|

G|---------------------------------------------------|
D|-------------------77777777-77777777---------------|
A|-10-9-10-9-10-9-10-------------------55555555---12-|
E|---------------------------------------------------|

            
            
Suggest correction
Creating personal tab
Creating personal tab
You can edit any tab online and save it as your Personal.

You can edit, replace or remove any tab part or add personal notes – all changes will be seen only by you.

Personal tabs can be accessed anytime from any device, even offline.
Learn more »
comments
print report bad tab
1 comment total.
0 reply
timgeer 10 Mar 17, 2013 12:58 AM

Seems pretty accurate

guest
You may want to rate the tab now too:
select rating
Wanna post a correction for this tab? Suggest correction