Oops, an error
Loading. Please wait.

Home Tab

662 views 1 this week
no commentswrite comment
1 2 3 4 5
please rate
add to favorites
launch autoscroll
font size
0
reset
how to read this tab
guitar tuner
Autoscroll
slow
fast
+/-
esc
set tempo
stop
Help us to improve Ultimate-Guitar.com Take our survey!
×
Contributor
pips_911 122
-------------------------------------------------------------------------------
                               Home - Sherwood
-------------------------------------------------------------------------------
Tabbed by: Pips
Email: pips_911@yahoo.com

Tuning: Standard

Intro: 
e|-------------------------------------------------------------------|
B|-88---------8----88---------8------88---------8----88--------8-----|
G|----77----7---7-----77----7---7-------77----7---7----77----7---7---|
D|-------99--------------99----------------99-------------99---------|
A|-------------------------------------------------------------------|
E|-------------------------------------------------------------------|

e|-------------------------------------------------------------------|
B|-------------------------------------------------------------------|
G|-12121212121212121212121212121212----------------------------------|
D|-12121212121212121212121212121212-14141414141414141414141414141414-|
A|-10101010101010101010101010101010-14141414141414141414141414141414-|
E|----------------------------------12121212121212121212121212121212-|

e|-------------------------------------|
B|-88---------8----77---------7----8~--|
G|----77----7---7-----77----7---7------|
D|-------99-------------77-------------|
A|-------------------------------------|
E|-------------------------------------|

e|-------------------------------------|
B|-------------------------------------|
G|----------------------------------11~|
D|-10101010101010101212121212121212-11~|
A|-10101010101010101212121212121212-9~-|
E|-8-8-8-8-8-8-8-8-1010101010101010----|

Verse I: Acoustic

e|-3-3333-3333-3-3333-3333-0-0000-0000-0-0000-0000-|
B|-0-0000-0000-0-0000-0000-0-0000-0000-0-0000-0000-|
G|-0-0000-0000-0-0000-0000-0-0000-0000-0-0000-0000-|
D|-0-0000-0000-0-0000-0000-2-2222-2222-2-2222-2222-|
A|-2-2222-2222-2-2222-2222-2-2222-2222-2-2222-2222-|
E|-3-3333-3333-3-3333-3333-0-0000-0000-0-0000-0000-|

e|-0-0000-0000-0-0000-0000-0-0000-0000-0-0000-0000-|
B|-1-1111-1111-3-3333-3333-0-0000-0000-0-0000-0000-|
G|-0-0000-0000-2-2222-2222-0-0000-0000-0-0000-0000-|
D|-2-2222-2222-0-0000-0000-2-2222-2222-2-2222-2222-|
A|-3-3333-3333-0-0000-0000-2-2222-2222-2-2222-2222-|
E|-0-0000-0000-x-xxxx-xxxx-0-0000-0000-0-0000-0000-|

e|-0-0000-0000-0-0000-0000-0-0000-0000-0-0000-0000-|
B|-0-0000-0000-0-0000-0000-1-1111-1111-3-3333-3333-|
G|-2-2222-2222-2-2222-2222-0-0000-0000-2-2222-2222-|
D|-2-2222-2222-2-2222-2222-2-2222-2222-0-0000-0000-|
A|-0-0000-0000-0-0000-0000-3-3333-3333-0-0000-0000-|
E|-x-xxxx-xxxx-x-xxxx-xxxx-0-0000-0000-x-xxxx-xxxx-|

e|-0-0000-0000------------|
B|-0-0000-0000------------|
G|-0-0000-0000--5-5-77777-|
D|-2-2222-2222--5-5-77777-|
A|-2-2222-2222--3-3-55555-|
E|-0-0000-0000------------|

Chorus: (not exact number of times)
e|-------------------------------------------------------------------|
B|-888888888888888888888888888-8h10-10\8-888888888888888888888888888-|
G|-------------------------------------------------------------------|
D|-------------------------------------------------------------------|
A|-------------------------------------------------------------------|
E|-------------------------------------------------------------------|

e|-------------------------------------------------------------------|
B|-------------------------------------------------------------------|
G|-12121212121212121212121212121212----------------------------------|
D|-12121212121212121212121212121212-14141414141414141414141414141414-|
A|-10101010101010101010101010101010-14141414141414141414141414141414-|
E|----------------------------------12121212121212121212121212121212-|

e|-------------------------------------------------------------------|
B|-888888888888888h101010101010101010888888888888888888888888888888~-|
G|-------------------------------------------------------------------|
D|-------------------------------------------------------------------|
A|-------------------------------------------------------------------|
E|-------------------------------------------------------------------|

e|-------------------------------------|
B|-------------------------------------|
G|----------------------------------11~|
D|-10101010101010101212121212121212-11~|
A|-10101010101010101212121212121212-9~-|
E|-8-8-8-8-8-8-8-8-1010101010101010----| 

Verse 2: Lead (just play with these). Rhythm same as verse 1
e|--------------------|
B|-8-8-8-8-8-8-8-8-10-|
G|--7-7-7-7-7-7-7-7-7-|
D|--------------------|
A|--------------------|
E|--------------------|
PM....................

CHORUS

INTRO

Bridge: (after "whoaaa")

e|--------------------------------------------------------------|
B|--------------------------------------------------------------|
G|-12121212----------1212121212121212---------------------------|
D|-12121212-10101010-1212121212121212-14141414-10101010-12121212|
A|-10101010-10101010-1010101010101010-14141414-10101010-12121212|
E|----------8-8-8-8-------------------12121212-8-8-8-8--10101010|

CHORUS

OUTRO (same as intro)




| /  slide up
| \  slide down
| h  hammer-on
| p  pull-off
| ~  vibrato
| +  harmonic
| x  Mute note
comments
We did not receive enough feedback on this tab! Please rate:
print report bad tab
1 2 3 4 5
I want to post or [tab]
guest
You may want to rate the tab now too:
select rating
Please do not post tabs as comments. Select "correction" instead!