Oops, an error
Loading. Please wait.

Learn To Sing Tab

version 1
version 1

Whole song

1,144 views 6 this week
no commentswrite comment
1 2 3 4 5
1 last vote to show rating
add to favorites
launch autoscroll
font size
0
reset
how to read this tab
guitar tuner
Autoscroll
slow
fast
+/-
esc
set tempo
stop
Help us to improve Ultimate-Guitar.com Take our survey!
×
Author
Difficulty
intermediate
-------------------------------------------------------------------------------
                             Learn To Sing - Sherwood
-------------------------------------------------------------------------------
Tabbed by: Stephen Paxton
Email:  steversays@gmail.com

There arent any sherwood tabs on here so i decided to throw one together for one of my favorite songs.

Tuning: Standard


INTRO VERSE (listen to song for that cool rhythm)

Guitar 1
e|----3--3--3--3--3------------------------------------------------------------|
B|----3--3--3--3--3------------------------------------------------------------|
G|----------2------------------------------------------------------------------|
D|----------------X------------------------------------------------------------|
A|----X--X--X--X--3------------------------------------------------------------|
E|----3--3--2--3---------------------------------------------------------------|

Guitar 2
e|-----------------------------------------------------------------------------|
B|-----------------------------------------------------------------------------|
G|---------------7-------------------------------------------------------------|
D|---5--5--5--5--5-------------------------------------------------------------|
A|---5--5--5--5--3-------------------------------------------------------------|
E|---3--3--2--3----------------------------------------------------------------|

Pre chorus
Guitar 1
e|----3--3--3--3--3------------------------------------------------------------|
B|----3--3--3--3--3------------------------------------------------------------|
G|----------2------------------------------------------------------------------|
D|----------------X------------------------------------------------------------|
A|----X--X--X--X--3------------------------------------------------------------|
E|----3--3--2--3---------------------------------------------------------------|

Guitar 2 (play around with this chord picking)
e|----10--------7-----10-------------------------------------------------------|
B|----8---------8------8-------------------------------------------------------|
G|----7---------7------7-------------------------------------------------------|
D|----7---------9-----10-------------------------------------------------------|
A|-----------------------------------------------------------------------------|
E|-----------------------------------------------------------------------------|

Chorus

Guitar 1
                   (X3)     (end on)
e|--3--3--3--3-------------3--3------------------------------------------------|
B|--3--3--3--3-------------3--3------------------------------------------------|
G|-----------2----------------2------------------------------------------------|
D|-----2--2--2----------------2------------------------------------------------|
A|--2--3--2--0-------------2--0------------------------------------------------|
E|--3----------------------3---------------------------------------------------|

Guitar 2

(alternate pick these X3)  End on
e|-10--8--7--5-----------------------------------------------------------------|
B|-----------------------------------------------------------------------------|
G|-7---7--7--7-----------------------------------------------------------------|
D|----------------------------7------------------------------------------------|
A|----------------------------7------------------------------------------------|
E|----------------------------5------------------------------------------------|

Outro (mostly bass, keys, and drums) at the end little riff goes like this:

Guitar 2 (While guitar one does percussion)

e|-----3------------------------------------------------------------------------|
B|-----3------------------------------------------------------------------------|
G|-----0------------------------------------------------------------------------|
D|-----5------------------------------------------------------------------------|
A|------------------------------------------------------------------------------|
E|------------------------------------------------------------------------------|

| /  slide up
| \  slide down
| h  hammer-on
| p  pull-off
| ~  vibrato
| +  harmonic
| x  Mute note
===============================================================================
Suggest correction
Give kudos to tab author, rate the tab!
1 2 3 4 5
comments
print report bad tab
guest
You may want to rate the tab now too:
select rating
Wanna post a correction for this tab? Suggest correction