Oops, an error
Loading. Please wait.

Never Ready To Leave Tab

1,685 views 6 this week
no commentswrite comment
1 2 3 4 5
excellent!
x 3
add to favorites
launch autoscroll
font size
0
reset
how to read this tab
guitar tuner
Tab Pro tools
  • play this tab
  • loop segment
  • change instrument
  • show fretboard
  • metronome
Autoscroll
slow
fast
+/-
esc
set tempo
stop
Contributor
-------------------------------------------------------------------------------
                                 Never Ready to Leave - Sherwood
-------------------------------------------------------------------------------
Tabbed by: Sean Hummer
Email: allstar21369@hotmail.com
Website: www.myspace.com/nomeansnocorey

I love this song and this is a rough tab of it with some of the lead.
It sounds good playing it with the song but there is a lot of backup guitar.

Also, I tabbed out a bit of the most prominent keyboard parts for guitar (such
as the intro).



Tuning: Standard


Intro/Verse-
e|0x-0x-0x-0x------0x-0x-0x-0x-----------------------0x-0x-0x-0x-----------|
B|5x-5x-5x-5x------5x-5x-5x-5x------6x-6x-6x-6x------5x-5x-5x-5x------3x---|
G|5x-5x-5x-5x-x4---2x-2x-2x-2x-x4---5x-5x-5x-5x------5x-5x-5x-5x-x2---5x---|
D|----------------------------------3x-3x-3x-3x-x4--------------------5x---|
A|-------------------------------------------------------------------------|
E|-------------------------------------------------------------------------|
   Or play this to have it sound deeper...
e|-------------------------------------------------------------------------|
B|-------------------------------------------------------------------------|
G|-------------------------------------------------------------------------|
D|2x-2x-2x-2x------2x-2x-2x-2x------3x-3x-3x-3x------2x-2x-2x-2x------0x---|
A|3x-3x-3x-3x-x4---0x-0x-0x-0x-x4---3x-3x-3x-3x-x4---3x-3x-3x-3x-x2---3x---|
E|-------------------------------------------------------------------------|



Chorus- Clean Strumming- (Here in the meantime, I'm a fly...)
e|--------------------|
B|1---------1---------|
G|0---------0---------|
D|2-x24-----2-x24-----|
A|3---------0---------|
E|--------------------|

Distorted- (And I'll tell you the worst part...)
e|------------------------------|
B|--------1-------3-------------|
G|--------2-------0------5------|
D|3-------2-x16---0-x8---x-x8---|
A|3-x32---0-------x------3------|
E|1---------------3-------------|

e|----------------------------|
B|-------1------3-------------|
G|-------2------0------5------|
D|3------2-x8---0-x8---x-x8---|
A|3-x8---0------x------3------|
E|1-------------3-------------|




Verse- (This house is haunted...)
e|-------------(Upstrokes)----------------|
B|------------------1x--------------------|
G|5x----------------2x-------5x------5~---|
D|5x-x16---7x-------3x-x16---5x-x8---5~---|
A|3x-------7x-x16---3x-------3x------3~---|
E|---------5x------------------------3~---|




Chorus- (Here in the meantime, I'm a fly...)
e|----------------|
B|----------------|
G|10-------9------|
D|x--x32---x-28---|
A|8--------7------|
E|----------------|

(And I'll tell you the worst part...)
e|------------------------------|
B|--------1-------3-------------|
G|--------2-------0------5------|
D|3-------2-x16---0-x8---x-x8---|
A|3-x32---0-------x------3------|
E|1---------------3-------------|




Post-Chorus-
Guitar 1
e|---------------------------------------------------------|
B|---------------------------------------------------------|
G|12-12-10\9---------------x3------------------------------|
D|-----------12-10-9/10-5---------5-7-9-10-12-14-15\14-10--|
A|---------------------------------------------------------|
E|---------------------------------------------------------|

Guitar 2
e|--------------------------------------|
B|--------1---------------3-------------|
G|5-------2---------------0------5------|
D|5-x16---2-x16---3-------0-x8---x-x8---|
A|3-------0-------3-x16---x------3------|
E|----------------1-------3-------------|




Post Chorus- (So this is how it feels...)
e|--------------------------------------|
B|--------1---------------3-------------|
G|5-------2---------------0-------------|
D|5-x16---2-x16---3-------0-x8---3------|
A|3-------0-------3-x16---x------3-x8---|
E|----------------1-------3------1------|

e|-------------------------|
B|--------3------------3---|
G|5-------2------------0---|
D|5-x16---0-x16---3~---0---|
A|3-------0-------3~---x---|
E|----------------1~---3---|




Bridge- Keyboard
e|------0----------------0----------------0----------------0-----------|
B|1---3----3-1-3---1---3----3-1-3---1---3----3-1-3---1---1-----3p1h3---|
G|--2----------------0----------------2----------------2-----0---------|
D|3----------------2----------------3----------------------------------|
A|---------------------------------------------------0-----------------|
E|-------------------------------------------------------------3-------|

Acoustic Strumming- (Here in the meantime...)
e|----------------|
B|1-------1-------|
G|2-------2-------|
D|3-x32---2-x32---|
A|3-------0-------|
E|----------------|




Outro- Distorted (And I'll tell you the worst part...)
e|------------------------------|
B|--------1-------3-------------|
G|--------2-------0------5------|
D|3-------2-x16---0-x8---x-x8---|
A|3-x32---0-------x------3------|
E|1---------------3-------------|

e|----------------------------|
B|-------1------3-------------|
G|-------2------0------5------|
D|3------2-x8---0-x8---x-x8---|x3
A|3-x8---0------x------3------|
E|1-------------3-------------|

(On the last riff Guitar 2 plays this)

e|---------------------1x8---|
B|1-x8---3-x8---5-x8---------|
G|---------------------------|
D|---------------------------|
A|---------------------------|
E|---------------------------|



| PM palm mute
| /  slide up
| \  slide down
| h  hammer-on
| p  pull-off
| ~  let ring
| b  bend
| *  substitute
| x  mute note
| +  harmonic
===============================================================================
comments
We did not receive enough feedback on this tab! Please rate:
print report bad tab
1 2 3 4 5
I want to post or [tab]
guest
You may want to rate the tab now too:
select rating
Please do not post tabs as comments. Select "correction" instead!