Oops, an error
Loading. Please wait.

Only Song Tab

version 1
version 1

Whole song

Interactive

3,597 views 1 this week
no commentswrite comment
1 2 3 4 5
1 last vote to show rating
add to favorites
launch autoscroll
font size
0
reset
how to read this tab
guitar tuner
Autoscroll
slow
fast
+/-
esc
set tempo
stop
Help us to improve Ultimate-Guitar.com Take our survey!
×
Author
Difficulty
novice
Intro:

e|----------------------------|
B|----------------------------|
G|-7-7-7-9-9-9-111111-121212--| x6
D|----------------------------|
A|-5-5-5-7-7-7-9-9-9--101010--|
E|----------------------------|

Verse:

e|----------------------------|
B|----------------------------|
G|-7-7-7--4-4-4---------------| 
D|-7-7-7--4-4-4--5-5-5--7-7-7-| 
A|-5-5-5--2-2-2--5-5-5--7-7-7-|
E|---------------3-3-3--5-5-5-|
                          * *

Listen to rhythm to work out the muted A chord

Pre-Chorus:

e|---------------|
B|---------------|
G|---------------| 
D|-7-7-7--4-4-4--| 
A|-5-5-5--2-2-2--|
E|---------------|
   * * *  * * *

Chorus:

e|----------------------------|
B|----------------------------|
G|-7-7-7--9-9-9---------------| 
D|-7-7-7--9-9-9--9-9-9--5-5-5-| 
A|-5-5-5--7-7-7--9-9-9--5-5-5-|
E|---------------7-7-7--3-3-3-|

Thats pretty much the song as the structure just repeats but with different effects - enjoy anyways!
Suggest correction
Give kudos to tab author, rate the tab!
1 2 3 4 5
comments
print report bad tab
guest
You may want to rate the tab now too:
select rating
Wanna post a correction for this tab? Suggest correction