Oops, an error
Loading. Please wait.

Only Song Acoustic tab

version 2
version 2

Whole song

Interactive

19,783 views 6 this week
1 commentread comment
1 2 3 4 5
x 8
add to favorites
×
Save as Personal and add changes to this tab that will be seen only by you. Learn more ›
×
You can save this tab as Personal to edit and correct it or add notes. All changes will be seen only by you. Learn more »
launch autoscroll
font size
0
reset
how to read this tab
guitar tuner
edit
Autoscroll
slow
fast
+/-
esc
set tempo
stop
Author
This is a song by Sherwood on the Punk Goes Acoustic 2.
I tabbed out every part in order so you can play along.
-------------------------------------------------------------------------------
                        The Only Song Acoustic - Sherwood
-------------------------------------------------------------------------------
Tabbed by: jakeim86
Email: jakeim86@aol.com

Tuning: Standard

I. Intro

Guitar 1
e|-----------------|------------------------|
B|-----------------|------------------------|
G|-7-7-7/9-9-9/1111|11/12-12-12-12-12-12-12-| 
D|-x-x-x/x-x-x/x-x-|-x/-x--x--x--x--x--x--x-|  x2  
A|-5-5-5/7-7-7/9-9-|-9/10-10-10-10-10-10-10-|
E|-----------------|------------------------|

Guitar 1
e|-----------------|------------------------|
B|-----------------|------------------------|
G|-7-7-7/9-9-9/1111|11/12-12-12-12-12-12-12-|
D|-x-x-x/x-x-x/x-x-|-x/-x--x--x--x--x--x--x-|   x4
A|-5-5-5/7-7-7/9-9-|-9/10-10-10-10-10-10-10-|
E|-----------------|------------------------|
Guitar 2                                    |
   >     >     >       >       2nd time only|        >=accent
e|-----------------|------------------------|
B|-----------------|----------/-------------|
G|-7---7-7---7-7---|-7-7------|-7--7--7--7--|
D|-x---x-x---x-x---|-x-x------|-x--x--x--x--|  x2
A|-5---5-5---5-5---|-5-5------|-5--5--5--5--|
E|-----------------|----------\-------------|
(continued)
e|-----------------|-----------------|
B|-----------------|-----------------|
G|-6-7-7-7-7-7-7-7-|-7-7-7-7-7-7-7-7-|
D|-x-x-x-x-x-x-x-x-|-x-x-x-x-x-x-x-x-|
A|-4/5-5-5-5-5-5-5-|-5-5-5-5-5-5-5-5-|
E|-----------------|-----------------|
(continued)
e|-----------------|-----------------|
B|-----------------|-----------------|
G|-6/7-7-6/7-7-6/7-|-7-6/7-7-7-7-7-7-|
D|-x-x-x-x-x-x-x-x-|-x-x-x-x-x-x-x-x-|
A|-4/5-5-4/5-5-4/5-|-5-4/5-5-5-5-5-5-|
E|-----------------|-----------------|
                              And I'm 
Verse 1

Guitar 1
   1   2 + 3   4 +   1 + 2 + 3   4     1   2 + 3   4 +   1 + 2 + 3   4
e|-----------------|-----------------|-----------------|-----------------|
B|-----------------|-----------------|-----------------|-----------------|
G|-7-----7-7-----7-|---7---7-7---7---|-4-----4-4-----4-|---4---4-4---4---|
D|-7-----7-7-----7-|---7---7-7---7---|-4-----4-4-----4-|---4---4-4---4---|
A|-5-----5-5-----5-|---5---5-5---5---|-2-----2-2-----2-|---2---2-2---2---|
E|-----------------|-----------------|-----------------|-----------------|
                                                                         | 
Guitar 2                                                                 | 
   1   2 + 3   4 +   1 + 2 + 3   4     1   2 + 3   4 +   1 + 2 + 3   4   |
e|-----------------|-----------------|-----------------|-----------------|
B|-----------------|-----------------|-----------------|-----------------|
G|-7-----7-7-----7-|---7---7-7---7---|-7-----7-7-----7-|---7---7-7---7---|
D|-x-----x-x-----x-|---x---x-x---x---|-x-----x-x-----x-|---x---x-x---x---|
A|-5-----5-5-----5-|---5---5-5---5---|-5-----5-5-----5-|---5---5-5---5---|
E|-----------------|-----------------|-----------------|-----------------|
   okay   Seems I just needed a break     Sat down but now I'm up again 

Guitar 1
   1   2 + 3   4 +   1 + 2 + 3   4     1   2 + 3 + 4 +   1 + 2 + 3 + 4 + 
e|-----------------|-----------------|-----------------|-----------------|
B|-----------------|-----------------|-----------------|-----------------|
G|-----------------|-----------------|-----------------|-----------------|
D|-5-----5-5-----5-|---5---5-5---5---|-7---7-7-7-7-7-7-|-7-7-7-7-7-7-7-7-|
A|-5-----5-5-----5-|---5---5-5---5---|-7---7-7-7-7-7-7-|-7-7-7-7-7-7-7-7-|
E|-3-----3-3-----3-|---3---3-3---3---|-5---5-5-5-5-5-5-|-5-5-5-5-5-5-5-5-|
Guitar 2                                                                 |
   1   2 + 3   4 +   1 + 2 + 3   4     1   2 + 3 + 4 +   1 + 2 + 3 + 4 + |
e|-----------------|-----------------|-----------------|-----------------|
B|-----------------|-----------------|-----------------|-----------------|
G|-7-----7-7-----7-|---6---4-----4---|-----------------|-----------------|
D|-x-----x-x-----x-|---x---x-----x---|-7---7-7-7-7-7-7-|-7-7-7-7-7-7-7-7-|
A|-5-----5-5-----5-|---4---2-----2---|-7---7-7-7-7-7-7-|-7-7-7-7-7-7-7-7-|
E|-----------------|-----------------|-5---5-5-5-5-5-5-|-5-5-5-5-5-5-5-5-|
                                          soft----crescendo---------loud
                 And finding out I'm   alone My friends  left  me  behind

Guitar 1
   1   2 + 3   4 +   1 + 2 + 3   4     1   2 + 3   4 +   1 + 2 + 3   4
e|-----------------|-----------------|-----------------|---------------|
B|-----------------|-----------------|-----------------|---------------|
G|-7-----7-7-----7-|---7---7-7---7---|-4-----4-4-----4-|---4---4-4---4-|
D|-7-----7-7-----7-|---7---7-7---7---|-4-----4-4-----4-|---4---4-4---4-|
A|-5-----5-5-----5-|---5---5-5---5---|-2-----2-2-----2-|---2---2-2---2-|
E|-----------------|-----------------|-----------------|---------------|
                                                                       | 
Guitar 2                                                               | 
   1   2 + 3   4 +   1 + 2 + 3   4     1   2 + 3   4 +   1 + 2 + 3   4 |
e|-----------------|-----------------|-----------------|---------------|
B|-----------------|-----------------|-----------------|---------------|
G|-7-----7-7-----7-|---7---7-7---7---|11----1111----11-|--11--1111--11-|
D|-x-----x-x-----x-|---x---x-x---x---|-x-----x-x-----x-|---x---x-x---x-|
A|-5-----5-5-----5-|---5---5-5---5---|-9-----9-9-----9-|---9---9-9---9-|
E|-----------------|-----------------|-----------------|---------------|
                     And into another town     Where this boy is not ar-    

Guitar 1
   1   2 + 3   4 +   1 + 2 + 3   4     1   2 + 3 + 4 +   1 + 2 + 3 + 4   
e|-----------------|-----------------|-----------------|----------------|
B|-----------------|-----------------|-----------------|----------------|
G|-----------------|-----------------|-------7---7-----|---7---7----[5]-|
D|-5-----5-5-----5-|---5---5-5---5---|-7---7-7---7-7---|-7-7---7-7--[5]-|
A|-5-----5-5-----5-|---5---5-5---5---|-7---7-5---5-7---|-7-5---5-7--[5]-|
E|-3-----3-3-----3-|---3---3-3---3---|-5---5-5---5-5---|-5-5---5-5--[5]-|
Guitar 2                                     >           >     >        |
   1   2 + 3   4 +   1 + 2 + 3 + 4 +   1   2 + 3 + 4 +   1 + 2 + 3 + 4  |
e|-----------------|-----------------|-----------------|----------------|
B|-----------------|-----------------|-----------------|----------------|
G|-12---11-9-------|-----------------|-------7---7-----|---7---7----[5]-|
D|--------------12-|--11---9---7-----|-7---7-7---7-7---|-7-7---7-7--[5]-|
A|-----------------|-----------------|-7---7-5---5-7---|-7-5---5-7--[5]-|
E|-----------------|-----------------|-5---5-5---5-5---|-5-5---5-5--[5]-|
  -round   And I don't blame them I'd   do the same                   
                                                      ^^^
Prechorus                          [I'm not sure about these two measures]

Guitar 1
e|-----------------|-----------------|
B|-----------------|-----------------|
G|-----------------|-----------------|
D|-----------------|-----------------|
A|-2-2-2-2-2-2-2-2-|-4-4-4-4-4-4-4-0-|
E|-----------------|-----------------|
PM * * * * * * * *   * * * * * * *   |
Guitar 2                             |
e|-----------------|-----------------|
B|-----------------|-2-2-2-3-3-3-5-5-|  
G|-4-4-4-4-4-4-4-4-|-----------------|
D|-----------------|-----------------|
A|-----------------|-----------------|
E|-----------------|-----------------|
PM * * * * * * * *   * * * * * * * *
   And now I'm alone again

Chorus

Guitar 1
       >       >         >       >         >       >         >       >
e|-----------------|-----------------|-----------------|-----------------|
B|-----------------|-----------------|-----------------|-----------------|
G|-7-7-7-7-7-7-7-7-|-----------------|-----------------|-----------------|
D|-7-7-7-7-7-7-7-7-|-7-7-7-7-7-7-7-7-|-9-9-9-9-9-9-9-9-|-5-5-5-5-5-5-5-5-| 
A|-5-5-5-5-5-5-5-5-|-7-7-7-7-7-7-7-7-|-9-9-9-9-9-9-9-9-|-5-5-5-5-5-5-5-5-| 
E|-----------------|-5-5-5-5-5-5-5-5-|-7-7-7-7-7-7-7-7-|-3-3-3-3-3-3-3-3-|
                                                                         |
Guitar 2                                                                 | x4
                                                                         |
e|-2-------2-------|-0-------0-------|-2-------2-------|-3-------3-------|
B|-----3-------3---|-----3-------3---|-----3-------3---|-----3-------3---|
G|---2---2---2---2-|---2---2---2---2-|---2---2---2---2-|---2---2---2---2-|
D|-----------------|-----------------|-----------------|-----------------|
A|-----------------|-----------------|-----------------|-----------------|
E|-----------------|-----------------|-----------------|-----------------|
            So I'll   sing along to    the only song      I've ever known
           And I'll send it out to the  lonely ones       Whoa uh oh oh
          Those days are gone but the   nights roll on  taking their place 
           So I'm singing  it out to the  lonely ones 

Post-Chorus

Guitar 1
   >     >     >       >
e|---------------|-----------------|
B|---------------|-----------------|
G|-7-7-7---------|-----------------|
D|-7-7-7-7-7-7-9-|-9-9-5-5-5-5-5-5-|
A|-5-5-5-7-7-7-9-|-9-9-5-5-5-5-5-5-|
E|-------5-5-5-7-|-7-7-3-3-3-3-3-3-|

Guitar 2

e|-----------------|------------------------|
B|-----------------|------------------------|
G|-7-7-7/9-9-9/1111|11/12-12-12-12-12-12-12-| 
D|-x-x-x/x-x-x/x-x-|-x/-x--x--x--x--x--x--x-| 
A|-5-5-5/7-7-7/9-9-|-9/10-10-10-10-10-10-10-|
E|-----------------|------------------------|

Verse 2

Guitar 1
   1   2 + 3   4 +   1 + 2 + 3   4     1   2 + 3   4 +   1 + 2 + 3   4
e|-----------------|-----------------|-----------------|---------------|
B|-----------------|-----------------|-----------------|---------------|
G|-7-----7-7-----7-|---7---7-7---7---|-4-----4-4-----4-|---4---4-4---4-|
D|-7-----7-7-----7-|---7---7-7---7---|-4-----4-4-----4-|---4---4-4---4-|
A|-5-----5-5-----5-|---5---5-5---5---|-2-----2-2-----2-|---2---2-2---2-|
E|-----------------|-----------------|-----------------|---------------|
                                                                       | 
Guitar 2                                                               | 
   1   2 + 3   4 +   1 + 2 + 3   4     1   2 + 3   4 +   1 + 2 + 3   4 |
e|-----------------|-----------------|-----------------|---------------|
B|-----------------|-----------------|-----------------|---------------|
G|-7-----7-7-----7-|---7---7-7---7---|-7-----7-7-----7-|---7---7-7---7-|
D|-x-----x-x-----x-|---x---x-x---x---|-x-----x-x-----x-|---x---x-x---x-|
A|-5-----5-5-----5-|---5---5-5---5---|-5-----5-5-----5-|---5---5-5---5-|
E|-----------------|-----------------|-----------------|---------------|
  Hey,          let's write the story again       Where I'm your lover and 

Guitar 1
   1   2 + 3   4 +   1 + 2 + 3   4     1   2 + 3 + 4 +   1 + 2 + 3 + 4 + 
e|-----------------|-----------------|-----------------|-----------------|
B|-----------------|-----------------|-----------------|-----------------|
G|-----------------|-----------------|-----------------|-----------------|
D|-5-----5-5-----5-|---5---5-5---5---|-7---7-7-7-7-7-7-|-7-7-7-7-7-7-7-7-|
A|-5-----5-5-----5-|---5---5-5---5---|-7---7-7-7-7-7-7-|-7-7-7-7-7-7-7-7-|
E|-3-----3-3-----3-|---3---3-3---3---|-5---5-5-5-5-5-5-|-5-5-5-5-5-5-5-5-|
Guitar 2                                                                 |
   1   2 + 3   4 +   1 + 2 + 3   4     1   2 + 3 + 4 +   1 + 2 + 3 + 4 + |
e|-----------------|-----------------|-----------------|-----------------|
B|-----------------|-----------------|-----------------|-----------------|
G|-7-----7-7-----7-|---6---4-----4---|-----------------|-----------------|
D|-x-----x-x-----x-|---x---x-----x---|-7---7-7-7-7-7-7-|-7-7-7-7-7-7-7-7-|
A|-5-----5-5-----5-|---4---2-----2---|-7---7-7-7-7-7-7-|-7-7-7-7-7-7-7-7-|
E|-----------------|-----------------|-5---5-5-5-5-5-5-|-5-5-5-5-5-5-5-5-|
                                          soft----crescendo---------loud
  best friend  Pack our backs and we'll leave this old ghost town behind  

Guitar 1
       >       >         >       >         >       >         >       >
e|-----------------|-----------------|-----------------|-----------------|
B|-----------------|-----------------|-----------------|-----------------|
G|-7-7-7-7-7-7-7-7-|-7-7-7-7-7-7-7-7-|-4-4-4-4-4-4-4-4-|-4-4-4-4-4-4-4-4-|
D|-7-7-7-7-7-7-7-7-|-7-7-7-7-7-7-7-7-|-4-4-4-4-4-4-4-4-|-4-4-4-4-4-4-4-4-| 
A|-5-5-5-5-5-5-5-5-|-5-5-5-5-5-5-5-5-|-2-2-2-2-2-2-2-2-|-2-2-2-2-2-2-2-2-|
E|-----------------|-----------------|-----------------|-----------------|
                                                                         |
Guitar 2                                                                 |
                    [these are 11's]                                     |
e|-----------------|-----------------|-----------------|-----------------|
B|-----------------|-----------------|-----------------|-----------------|
G|-7-7-7-7/9-9-9-9/|1111111111111111-|-7-7-7-7/9-9-9-9/|1111111111111111-|
D|-x-x-x-x-x-x-x-x-|-x-x-x-x-x-x-x-x-|-x-x-x-x-x-x-x-x-|-x-x-x-x-x-x-x-x-|
A|-5-5-5-5/7-7-7-7/|-9-9-9-9-9-9-9-9-|-5-5-5-5/7-7-7-7/|-9-9-9-9-9-9-9-9-|
E|-----------------|-----------------|-----------------|-----------------|
                And into another town            Where this boy is not ar-

Guitar 1
       >       >         >       >
e|-----------------|-----------------|-----------------|----------------|
B|-----------------|-----------------|-----------------|----------------|
G|-----------------|-----------------|-------7---7-----|---7---7----[5]-|
D|-5-5-5-5-5-5-5-5-|-5-5-5-5-5-5-5-5-|-7---7-7---7-7---|-7-7---7-7--[5]-|
A|-5-5-5-5-5-5-5-5-|-5-5-5-5-5-5-5-5-|-7---7-5---5-7---|-7-5---5-7--[5]-|
E|-3-3-3-3-3-3-3-3-|-3-3-3-3-3-3-3-3-|-5---5-5---5-5---|-5-5---5-5--[5]-|
                                                                        |
Guitar 2                                                                |
  [these are 12's and 11's]                                             |
e|-----------------|-----------------|-----------------|----------------|
B|-----------------|-----------------|-----------------|----------------|
G|121212111111/9-9-|-9/7-7-7/6-6-6-6-|-------7---7-----|---7---7----[5]-| 
D|-x-x-x-x-x-x-x-x-|-x-x-x-x-x-x-x-x-|-7---7-7---7-7---|-7-7---7-7--[5]-|
A|101010-9-9-9/7-7-|-7/5-5-5/4-4-4-4-|-7---7-5---5-7---|-7-5---5-7--[5]-|
E|-----------------|-----------------|-5---5-5---5-5---|-5-5---5-5--[5]-|
  round       He made the mistake of   leaving you

Prechorus

Guitar 1
e|-----------------|-----------------|
B|-----------------|-----------------|
G|-----------------|-----------------|
D|-----------------|-----------------|
A|-2-2-2-2-2-2-2-2-|-4-4-4-4-4-4-4-0-|
E|-----------------|-----------------|
PM * * * * * * * *   * * * * * * *   |
Guitar 2                             |
e|-----------------|-----------------|
B|-----------------|-2-2-2-3-3-3-5-5-|  
G|-4-4-4-4-4-4-4-4-|-----------------|
D|-----------------|-----------------|
A|-----------------|-----------------|
E|-----------------|-----------------|
PM * * * * * * * *   * * * * * * * *
  That was mistake number two 

Chorus

Guitar 1
       >       >         >       >         >       >         >       >
e|-----------------|-----------------|-----------------|-----------------|
B|-----------------|-----------------|-----------------|-----------------|
G|-7-7-7-7-7-7-7-7-|-----------------|-----------------|-----------------|
D|-7-7-7-7-7-7-7-7-|-7-7-7-7-7-7-7-7-|-9-9-9-9-9-9-9-9-|-5-5-5-5-5-5-5-5-| 
A|-5-5-5-5-5-5-5-5-|-7-7-7-7-7-7-7-7-|-9-9-9-9-9-9-9-9-|-5-5-5-5-5-5-5-5-| 
E|-----------------|-5-5-5-5-5-5-5-5-|-7-7-7-7-7-7-7-7-|-3-3-3-3-3-3-3-3-|
                                                                         |
Guitar 2                                                                 | x4
                                                                         |
e|-2-------2-------|-0-------0-------|-2-------2-------|-3-------3-------|
B|-----3-------3---|-----3-------3---|-----3-------3---|-----3-------3---|
G|---2---2---2---2-|---2---2---2---2-|---2---2---2---2-|---2---2---2---2-|
D|-----------------|-----------------|-----------------|-----------------|
A|-----------------|-----------------|-----------------|-----------------|
E|-----------------|-----------------|-----------------|-----------------|
            So I'll   sing along to    the only song      I've ever known
           And I'll send it out to the  lonely ones       Whoa uh oh oh
          Those days are gone but the   nights roll on  taking their place 
           So I'm singing  it out to the  lonely ones 

Solo [Based on the solo transcribed by timmay_x]

Guitar 1

   1   2 + 3   4 +   1 + 2 + 3 + 4 +   1   2 + 3   4 +   1 + 2 + 3 + 4 +
e|-----------------|-----------------|-----------------|-----------------|
B|-----------------|-----------------|-----------------|-----------------|
G|-7---7-7-7---7-7-|---7---7-7-7-7-7-|-4---4-4-4---4-4-|---4---4-4-4-4-4-|
D|-7---7-7-7---7-7-|---7---7-7-7-7-7-|-4---4-4-4---4-4-|---4---4-4-4-4-4-|
A|-5---5-5-5---5-5-|---5---5-5-5-5-5-|-2---2-2-2---2-2-|---2---2-2-2-2-2-|
E|-----------------|-----------------|-----------------|-----------------|
                                                                         |
Guitar 2                                                                 |
   1   2   3   4 +   1 + 2 + 3 + 4     1   2   3   4 +   1 + 2 + 3 + 4 + |
e|-----------------|-----------------|-----------------|-----------------| 
B|5/7~~----------7-|---7---8-7/5-----|5/7~~---------10-|---8/7-----------|
G|-----------------|-------------7---|-----------------|-------9-7/6-----|
D|-----------------|-----------------|-----------------|-------------9-7-|
A|-----------------|-----------------|-----------------|-----------------|
E|-----------------|-----------------|-----------------|-----------------|

Guitar 1

   1   2 + 3   4 +   1 + 2 + 3 + 4 +   1   2 + 3   4 +   1 + 2 + 3 + 4 +
e|-----------------|-----------------|-----------------|-----------------|
B|-----------------|-----------------|-----------------|-----------------|
G|-----------------|-----------------|-----------------|-----------------|
D|-5---5-5-5---5-5-|---5---5-5-5-5-5-|-7---7-7-7---7-7-|---7---7-7-7-7-7-|
A|-5---5-5-5---5-5-|---5---5-5-5-5-5-|-7---7-7-7---7-7-|---7---7-7-7-7-7-|
E|-3---3-3-3---3-3-|---3---3-3-3-3-3-|-5---5-5-5---5-5-|---5---5-5-5-5-5-|
                                                                         |
Guitar 2                                                                 |
   1   2 +  3 + 4    1 + 2   3 + 4     1   2 + 3   4     1 + 2   3   4   |
e|-----------------|-----------------|-----------------|-----------------|
B|-----------------|-----------------|-----------------|--10~~-----------|
G|-----------------|---7-------------|-6-----7-----9---|--11~~-----------|
D|-5-----7----7/9--|---------9/7-5---|-7-----9----11---|-----------------|
A|-----------------|-----------------|-----------------|-----------------|
E|-----------------|-----------------|-----------------|-----------------|

Bridge

Guitar 1

e|-----------------|-----------------|-----------------|-----------------|
B|-----------------|-----------------|-----------------|-----------------|
G|-7~~-------------|(7)--------------|-4~~-------------|(4)--------------|
D|-7~~-------------|(7)--------------|-4~~-------------|(4)--------------|
A|-5~~-------------|(5)--------------|-2~~-------------|(2)--------------|
E|-----------------|-----------------|-----------------|-----------------|
                                                                         |
Guitar 2                                                                 |
                                                                         |
e|-----------------|-----------------|-----------------|-----------------|
B|-----------------|-----------------|-----------------|-----------------|
G|-7~~-------------|(7)--------------|-7~~-------------|(7)--------------|
D|-7~~-------------|(7)--------------|-7~~-------------|(7)--------------|
A|-5~~-------------|(5)--------------|-5~~-------------|(5)--------------|
E|-----------------|-----------------|-----------------|-----------------|
   Hey        let's write the story   again      Where I'm your lover and 

Guitar 1

e|-----------------|-----------------|
B|-----------------|-----------------|
G|-----------------|-----------------|
D|-5~~-------------|(5)--------------|
A|-5~~-------------|(5)--------------|
E|-3~~-------------|(3)--------------|
                                     |
Guitar 2                             |
                                     |
e|-----------------|-----------------|
B|-----------------|-----------------|
G|-7~~-------------|(7)--------------|
D|-7~~-------------|(7)--------------|
A|-5~~-------------|(5)--------------|
E|-----------------|-----------------|
   best friend...

Ending Chorus

Chorus

Guitar 1
       >       >         >       >         >       >         >       >
e|-----------------|-----------------|-----------------|-----------------|
B|-----------------|-----------------|-----------------|-----------------|
G|-7-7-7-7-7-7-7-7-|-----------------|-----------------|-----------------|
D|-7-7-7-7-7-7-7-7-|-7-7-7-7-7-7-7-7-|-9-9-9-9-9-9-9-9-|-5-5-5-5-5-5-5-5-| 
A|-5-5-5-5-5-5-5-5-|-7-7-7-7-7-7-7-7-|-9-9-9-9-9-9-9-9-|-5-5-5-5-5-5-5-5-| 
E|-----------------|-5-5-5-5-5-5-5-5-|-7-7-7-7-7-7-7-7-|-3-3-3-3-3-3-3-3-|
                                                                         |
Guitar 2                                                                 | x2
                                                                         |
e|-2-------2-------|-0-------0-------|-2-------2-------|-3-------3-------|
B|-----3-------3---|-----3-------3---|-----3-------3---|-----3-------3---|
G|---2---2---2---2-|---2---2---2---2-|---2---2---2---2-|---2---2---2---2-|
D|-----------------|-----------------|-----------------|-----------------|
A|-----------------|-----------------|-----------------|-----------------|
E|-----------------|-----------------|-----------------|-----------------|
            So I'll   sing along to    the only song      I've ever known
           And I'll send it out to the  lonely ones       Whoa uh oh oh 

Guitar 1
       >       >         >       >         >       >         >       >
e|-----------------|-----------------|-----------------|-----------------|
B|-----------------|-----------------|-----------------|-----------------|
G|-7-7-7-7-7-7-7-7-|-----------------|-----------------|-----------------|
D|-7-7-7-7-7-7-7-7-|-7-7-7-7-7-7-7-7-|-9-9-9-9-9-9-9-9-|-5-5-5-5-5-5-5-5-| 
A|-5-5-5-5-5-5-5-5-|-7-7-7-7-7-7-7-7-|-9-9-9-9-9-9-9-9-|-5-5-5-5-5-5-5-5-| 
E|-----------------|-5-5-5-5-5-5-5-5-|-7-7-7-7-7-7-7-7-|-3-3-3-3-3-3-3-3-|
                                                                         |
Guitar 2                                                                 | 
                                                                         |
e|-2-------2-------|-0-------0-------|-2-------2-------|-3-------3-------|
B|-----3-------3---|-----3-------3---|-----3-------3---|-----3-------3---|
G|---2---2---2---2-|---2---2---2---2-|---2---2---2---2-|---2---2---2---2-|
D|-----------------|-----------------|-----------------|-----------------| x2
A|-----------------|-----------------|-----------------|-----------------|
E|-----------------|-----------------|-----------------|-----------------|
                                                                         |
Guitar 3                                                                 |
                                                                         |
e|-----------------|-----------------|-----------------|-----------------|
B|-----------------|-----------------|-----------------|-----------------|
G|-6/7-7-7-7-7-7-7-|-6/7-7-7-7-7-7-7-|-6/7-7-7-7-7-7-7-|-6/7-7-7-7-7-7-7-|
D|-x-x-x-x-x-x-x-x-|-x-x-x-x-x-x-x-x-|-x-x-x-x-x-x-x-x-|-x-x-x-x-x-x-x-x-|
A|-4/5-5-5-5-5-5-5-|-4/5-5-5-5-5-5-5-|-4/5-5-5-5-5-5-5-|-4/5-5-5-5-5-5-5-|
E|-----------------|-----------------|-----------------|-----------------|
            Those   days are gone but the nights roll on taking their place
          So I'm   singing it out to the   lonely ones     whoa uh oh oh 

Ending

Guitar 1
   1 + 2 + 3 + 4 +   1  +  2  +  3  +  4  +
e|-----------------|------------------------|
B|-----------------|------------------------|
G|-7-7-7/9-9-9/1111|11/12-12-12-12-12-12-12-| 
D|-x-x-x/x-x-x/x-x-|-x/-x--x--x--x--x--x--x-|  x2  
A|-5-5-5/7-7-7/9-9-|-9/10-10-10-10-10-10-10-|
E|-----------------|------------------------|
                                            |
Guitar 2                                    |
   1 + 2 + 3 + 4 +   1  + 2  +  3  +  4 +   |
e|-----------------|------------------------|
B|-----------------|------------------------|
G|-6/7-7-6/7-7-6/7-|-7--6/7--7--7--7--7--7--|
D|-x-x-x-x-x-x-x-x-|-x--x-x--x--x--x--x--x--|  x2
A|-4/5-5-4/5-5-4/5-|-5--4/5--5--5--5--5--5--|
E|-----------------|------------------------|
                        Whoa uh oh oh~~~
  uh oh oh ooh

Guitar 1
   1   2 + 3   4     1   2   3   4   
e|-----------------|-----------------||
B|-----------------|-----------------||
G|-7---------------|-----------------||
D|-7-----7-----9~~-|(9)--------------||
A|-5-----7-----9~~-|(9)--------------||
E|-------5-----7~~-|(7)--------------||
                                     ||
Guitar 2                             ||
   1   2 + 3   4     1   2   3   4   ||   
e|-----------------|-----------------||
B|-----------------|-----------------||
G|11-----9-----7~~-|(7)--------------||
D|-x-----x-----x~~-|-----------------||
A|-9-----7-----5~~-|(5)--------------||
E|-----------------|-----------------||

            
            
Suggest correction
Creating personal tab
Creating personal tab
You can edit any tab online and save it as your Personal.

You can edit, replace or remove any tab part or add personal notes – all changes will be seen only by you.

Personal tabs can be accessed anytime from any device, even offline.
Learn more »
comments
print report bad tab
1 comment total.
0 reply
Harrisfun 51 Jul 20, 2009 06:39 AM

beautiful!

guest
You may want to rate the tab now too:
select rating
Wanna post a correction for this tab? Suggest correction