Oops, an error
Loading. Please wait.

Something Worth Knowing Chords

966 views 3 this week
no commentswrite comment
1 2 3 4 5
please rate
add to favorites
launch autoscroll
font size
0
reset
transpose
0
reset
- display chords -
guitar tuner
Tab Pro tools
  • play this tab
  • loop segment
  • change instrument
  • show fretboard
  • metronome
Autoscroll
slow
fast
+/-
esc
set tempo
stop
Contributor
(Intro)
e|------------------------------|
B|------------------------------|
G|--10--9---7-5----4----5--7-7--|
D|--x---x---x-x----x----x--x-x--|
A|--8---7---5-3----2----3--5-5--|
E|------------------------------|

e|-----------------------------------------------|
B|-----------------------------------------------|
G|--5-7/-9-9---5-7/-9-9-7---5-7/-9-9-7-5-7-5-4-5-|
D|-----------------------------------------------|
A|-----------------------------------------------|
E|-----------------------------------------------|

(Verse 1)
            C                G
Lately I've been, doing some thinking
                  Am            G           F
I guess that it's more like the last couple years
              C                    G
I never would guess, all that it's taught me
              Am              G          F
And I can't believe that it's brought me here
               C                      G
I'm happy that you, know where you're going
               Am       G             F
I wish I could say of myself that was true
           C                    G
We both pursue, something worth knowing
              Am           G             F
But I may not end with the same thing as you

e|------------------------------|
B|------------------------------|
G|--10--9---7-5----4----5--7-7--|
D|--x---x---x-x----x----x--x-x--|
A|--8---7---5-3----2----3--5-5--|
E|------------------------------|

(Chorus 1)
             F             C         G
Wasn't there something you wanted to say
              F           C                G
About all the things that could get in our way
          F            C         G              Am           F   C   G
If I am a martyr, will you be my faith, if it's all the same

e|-------------------------|
B|-------------------------|
G|--10----12--9-----5---7--|
D|--x-----x---x-----x---x--|
A|--8-----10--7-----3---5--|
E|-------------------------|

(Verse 2)
                 C                      G
I'm counting the days, and counting the dollars
          Am           G          F
Wondering how much I'm willing to spend
             C                     G
To make us believe, that this is important
             Am           G        F
There's only so long that I can pretend

e|------------------------------|
B|------------------------------|
G|--10--9---7-5----4----5--7-7--|
D|--x---x---x-x----x----x--x-x--|
A|--8---7---5-3----2----3--5-5--|
E|------------------------------|

(Chorus 2)
             F             C         G
Wasn't there something you wanted to say
              F           C                G
About all the things that could get in our way
          F            C         G              Am           F   C   G
If I am a martyr, will you be my faith, if it's all the same
        Am
If it's all the same


(Bridge)
F                      E
  You could write me a letter
               Am   
You're not the only one
               D
You're not the only one
     F                      G                        F    C    G 
That feels the way that you do, cause I feel it too

e|----------------------------------------------------|
B|----------------------------------------------------|
G|--10----12--9-----5---7------10----12--9-----5---7--|
D|--x-----x---x-----x---x------x-----x---x-----x---x--|
A|--8-----10--7-----3---5------8-----10--7-----3---5--|
E|----------------------------------------------------|

(Last Chorus)
             F             C         G
Wasn't there something you wanted to say
              F           C                G
About all the things that could get in our way
          F            C         G              Am           F   C   G   Am
If I am a martyr, will you be my faith, if it's all the same

             F             C         G        Am
Wasn't there something you wanted to say
              F           C                G        Am
About all the things that could get in our way
          F            C         G              Am           F   C   G
If I am a martyr, will you be my faith, if it's all the same

e|-------------------------|
B|-------------------------|
G|--10----12--9-----5---7--|
D|--x-----x---x-----x---x--|
A|--8-----10--7-----3---5--|
E|-------------------------|
comments
We did not receive enough feedback on this tab! Please rate:
print report bad tab
1 2 3 4 5
I want to post or [tab]
guest
You may want to rate the tab now too:
select rating
Please do not post tabs as comments. Select "correction" instead!