Oops, an error
Loading. Please wait.

Something Worth Knowing Tab

543 views 1 this week
1 commentread comment
1 2 3 4 5
please rate
add to favorites
launch autoscroll
font size
0
reset
how to read this tab
guitar tuner
Tab Pro tools
  • play this tab
  • loop segment
  • change instrument
  • show fretboard
  • metronome
×
Best way to learn
"Something Worth Knowing"
Autoscroll
slow
fast
+/-
esc
set tempo
stop
Contributor
Difficulty
intermediate
i only have the intro and verse...i dont have the chorus yet, sorry.

. = palm muted
h = hammer on
/ = slide


e|------------------------------------|
B|------------------------------------|
G|------------------------------------| this part is played at the same time with the
D|--------------------         piano--|
A|---5---3---2---0--------------------|
E|-------------------3----------------|
     .................


e|--------------------------------------------------------|
B|--------------------------------------------------------|
G|--------------------------------------------------------|
D|--------------------------------------------------------|
A|---3h5/7-7--------3h5/7-7-5--------3h5/7-7-5-3-5-3-2-3--|
E|--------------------------------------------------------|


VERSE:

e|-----------------------------------------------------|
B|-----------------------------------------------------|
G|-------5-------7-------5-------7-------5-------------|  1x
D|-----5-------5-------7-------5-------3---------------|
A|---7-------5-------7-------5-------3-----------------|
E|-----------------------------------------------------|

e|-----------------------------------------------------|
A|-----------------------------------------------------|
G|-------5-------7-------5-------7-------5-------------|   3x
B|-----5-------6-------7-------5-------3---------------|
A|---7-------7-------7-------5-------3-----------------|
E|-----------------------------------------------------|

and thats all i got for you, sorry i dont have the chorus, but yeah this is my first 
so please rate it. But overall its a pretty easy, but rather fun song to play.

God bless you guys. DJ.
comments
We did not receive enough feedback on this tab! Please rate:
print report bad tab
1 2 3 4 5
1 comment total.
0 reply
r-man...MAN wrote on November 29 2006, 01:16 am

Here Part Of The Chorus:
------------------------------
------------------------------
-----55----------------------- (x2)
-33--55-----------------------
-33--33--5-555555-------------
-11------3-333333-------------

------------------------------
------------------------------
-------5555-------------------
-3333--5555-55555-7-----------
-3333--3333-55555-7-----------
-1111-------33333-5-----------

------------------------------
------------------------------
----5~------------------------
-3~-5~-5~---------------------
-3~-3~-5~---------------------
-1~----3~---------------------
by, Ryan

I want to post or [tab]
guest
You may want to rate the tab now too:
select rating
Please do not post tabs as comments. Select "correction" instead!