Oops, an error
Loading. Please wait.

Song In My Head Bass Tab

version 1
version 1

Whole song

Interactive

666 views 1 this week
no commentswrite comment
1 2 3 4 5
please rate
add to favorites
launch autoscroll
font size
0
reset
guitar tuner
Tab Pro tools
  • play this tab
  • loop segment
  • change instrument
  • show fretboard
  • metronome
×
Best way to learn
"Song In My Head"
Autoscroll
slow
fast
+/-
esc
set tempo
stop
Difficulty
novice
Song in my head
standard tuning

intro
(00:14 you were a song.....never left so cold)
G|-------------------------------------|
D|-------------------------------------|x2
A|-33333333----------77777777----------|
E|----------33333333----------11111111-|


G|---------------5~-------------------------|
D|--3~-------------------1~-----------------|
A|-------3~---------------------------------|
E|------------------------------------------|

Verse

G|-------------------------------------|x2
D|-------------------------------------|
A|-33333333----------55555555----------|
E|----------33333333----------11111111-|


G|-------------------------------------|
D|-------------------------------------|
A|3-3-3-3-----------5-5-5-5-5----------|
E|--------3-3-3-3-------------1-1-1-1--|

Chorus

G|---------------------------------------------------------------------------|
D|---------------------------------------------------------------------------|
A|-333333333-----3333333333-----------333333333------------------------------|
E|-------111111111-----------1111111111-----------111111111-----333333333----|

Bridge
(im not sure about this one)
G|-----------------------------|
D|-----------------------------|
A|-----------------------------|
e|-5--1--3--7-1-3--3-5-7--8-10-|
comments
We did not receive enough feedback on this tab! Please rate:
print report bad tab
1 2 3 4 5
I want to post or [tab]
guest
You may want to rate the tab now too:
select rating
Please do not post tabs as comments. Select "correction" instead!