Oops, an error
Loading. Please wait.

Song In My Head Tab

version 1
version 1

Whole song

Interactive

4,004 views 1 this week
2 commentsread comments
1 2 3 4 5
2 more votes to show rating
add to favorites
launch autoscroll
font size
0
reset
how to read this tab
guitar tuner
Autoscroll
slow
fast
+/-
esc
set tempo
stop
Help us to improve Ultimate-Guitar.com Take our survey!
×
Author
Song in my head

Intro and beginning of two lines of verse(piano)
C        Am   F
C        Am   F

Gtr

E|-------------------------------------|
B|-------------------------------------|
G|-------------------------------------|
D|-55555555----------------------------|
A|-33333333-55555555-77777777-33333333-|
e|----------33333333-55555555-11111111-|
   ******** ******** ******** ********
   C        G        Am       F

Chorus (acoustic)

Am  F  C  G
Am  C  G     Dist on G

(this riff is not be perfect)
E|-12-12--13--12---12---10--10--10-------12-|
B|------13--13---13---13------13--13--------|
G|-----------------------------------12-----|  repeat
D|------------------------------------------|
A|------------------------------------------|
e|------------------------------------------|

Verse

E|-------------------------------------|
B|-------------------------------------|
G|-55555555----------------------------|
D|-55555555-55555555-77777777-33333333-|
A|-33333333-55555555-77777777-33333333-|
e|----------33333333-55555555-11111111-|
   ******** ******** ******** ********

E|----------------------------|
B|----------------------------|
G|-55555555-------------------|
D|-55555555-55555555-33333333-|
A|-33333333-55555555-33333333-|
e|----------33333333-11111111-|
   ******** ******** ********

E|-------------------------------------|
B|-------------------------------------|
G|-5-5-5-5-----------------------------|
D|-5-5-5-5--5-5-5-5--7-7-7-7--3-3-3-3--|
A|-3-3-3-3--3-3-5-5--7-7-7-7--3-3-3-3--|
e|----------3-3-3-3--5-5-5-5--1-1-1-1--|

E|-------------------------------------|
B|-------------------------------------|
G|-5-5-5-5-----------------------------|
D|-5-5-5-5--5-5-5-5--7-7-7-7--3-3-3-3--|
A|-3-3-3-3--3-3-5-5--7-7-7-7--3-3-3-3--|
e|----------3-3-3-3--5-5-5-5--1-1-1-1--|


Chorus (gtr 1)

E|----------------------------------------|
B|----------------------------------------|
G|-5-----------5-----------5--------------|
D|-5-----3-----5-----3-----5-----3-----5--|
A|-3-----3-----3-----3-----3-----3-----5--|
e|-------1-----------1-----------1-----3--|

(gtr 2) i cant figure out the other riff ;(

E|-----3-----3-------3--|
B|---5------5------5----|
G|-5------5------5------|
D|----------------------|
A|----------------------|
e|----------------------|


The first chord is the last chord of the chorus and the rest that follow are
the chord right before the bridge

E|--------------|
B|--------------|
G|--------------|
D|-5---3-5-3s7--|
A|-5---3-5-3s7--|
e|-3---1-3-1s5--|

Bridge (totally not sure about that one)

E|-----------------------------|
B|-----------------------------|
G|-----------------------------|
D|-7--3--5--5-3-5--5-7-9-10-12-|
A|-7--3--5--5-3-5--5-7-9-10-12-|
e|-5--1--3--7-1-3--3-5-7--8-10-|
Suggest correction
Give kudos to tab author, rate the tab!
1 2 3 4 5
comments
print report bad tab
2 comments total.
0 reply
shpangler 30 Jul 16, 2010 07:35 PM

I'm pretty sure this is the correct riff to play but again not 100%, you can give it a try.

E|-12--12----12----10----10-----10----------|
B|--------13---13-----13--------------13—13-|
G|--------------------------12----12--------| repeat
D|------------------------------------------|
A|------------------------------------------|
e|------------------------------------------|

0 reply
Jonbon207 182 Sep 23, 2010 08:21 PM

I'm sure its played with delay or something
but this is how i play it w/o and it sounds good to me

E|-12---12---------10----10----10---------------|
B|---------13---13----13-------------13---13----|
G|--------------------------12----12---12----12-|
D|----------------------------------------------|
A|----------------------------------------------|
e|----------------------------------------------|

guest
You may want to rate the tab now too:
select rating
Wanna post a correction for this tab? Suggest correction