Oops, an error
Loading. Please wait.

Song In My Head Bass Tab

version 2
version 2

Whole song

Interactive

963 views 1 this week
no commentswrite comment
1 2 3 4 5
please rate
add to favorites
launch autoscroll
font size
0
reset
guitar tuner
Autoscroll
slow
fast
+/-
esc
set tempo
stop
Help us to improve Ultimate-Guitar.com Take our survey!
×
Author
Sherwood
Song in My Head		Standard [EADG]
Bass Tab

(come in at around 00:28)
G|----------------------------------------------------------------|
D|-3333333333333333-----------------------------------------------| 
A|------------------3333333333333333------------------------------|
E|------------------------------------55555555-11111111--33333333-|

G|--------------------------|
D|--------------------------|
A|----------------10-10-10--|
E|--3-33-33-33-3/-----------|

G|-------------------------------------|\
D|-------------------------------------| \ 
A|33333333-----------------------------| / 3 Times
E|---------33333333--55555555--11111111|/

G|-------------------------------------|
D|-------------------------------------| 
A|33333333---------------------88888888| 
E|---------33333333--11111111----------|

G|-------------------------------------|\
D|-------------------------------------| \ 
A|3-3-3-3------------------------------| / 2 Times
E|---------3-3-3-3---5-5-5-5---1-1-1-1-|/

G|--------------------------------------------------------------------------------|
D|--------------------------------------------------------------------------------| 
A|------------------3333333333333333-------------------------------10101081010108\|
E|-1111111111111111-------------------55555555-11111111--33333333-----------------|

G|------------------------------------------------------------------------|
D|------------------------------------------------------------------------|
A|------------------3333333333333333--------------------------------------|
E|1111111111111111-------------------55555555-11111111--3333333333333333--|

G|-------------------|
D|-------------------|
A|-------------------|
E|-1.--2.--3--0--4444|

G|----------------------------------------------------------|
D|----------------------------------------------------------|
A|----------55555555----------77777777----------------------|
E|-5-555555----------33333333----------11111111-22222222----|

G|-------------------------|
D|-------------------------|
A|-------------------------|
E|-333-444-555-777-88-1010-|

G|--------------------------------------------------------------------------------|
D|-3333333333333333---------------------------------------------------------------| 
A|------------------3333333333333333-------------------------------10101081010108\|
E|------------------------------------55555555-11111111--33333333-----------------|

G|------------------------------------------------------------------------|\
D|------------------------------------------------------------------------| \ 
A|--------------------3333333333333333------------------------------------| / 2 Times 
E|--1111111111111111-------------------55555555-11111111-3333333333333333-|/

G|-------------------------------------|\
D|-------------------------------------| \ 
A|33333333-----------------------------| / 4 Times
E|---------33333333--55555555--11111111|/

END
G|---------|
D|---------|
A|----3----|
E|---------|
Suggest correction
What's this?
You can suggest a correction to this tab. Community and Mods will review your correction and vote to approve or reject it.
comments
We did not receive enough feedback on this tab! Please rate:
print report bad tab
1 2 3 4 5
guest
You may want to rate the tab now too:
select rating
Please do not post tabs as comments. Select "correction" instead!