Oops, an error
Loading. Please wait.

The Town That You Live In Tab

version 1
version 1

Whole song

3,579 views 1 this week
3 commentsread comments
1 2 3 4 5
x 3
add to favorites
launch autoscroll
font size
0
reset
how to read this tab
guitar tuner
Autoscroll
slow
fast
+/-
esc
set tempo
stop
Help us to improve Ultimate-Guitar.com Take our survey!
×
Author
Sherwood is one of the best upcoming bands around!
I just saw them about a month ago and those guys know how to do it. This song is called 
that you live in.
(Tabbed By Chris Egan)If you havent heard them check them out!
My Band: www.myspace.com/sunnydaysandstickmen
         www.direrock.com

Rhythm 1:
   ("I must say....")
e---------|
B---------|
G-4---7---|
D-4-5-7-7-|
A-2-5-5-7-|
E---3---5-|

Easy Strumming pattern, you'll get it.

Lead 1:
   (You're my friend...")
e---------------------------------|
B--7--7--7--5---------------------|
G---77-77-77----------------------|
D---------------------------------|                    x4
A---------------------------------|
E---------------------------------|


1st Chorus: (This is only the LEAD part, the rhythm is hitting something, i just dont know what)
   (And tonight I walk through and empty street...")
e---------------------------------|
B-/8-8-8/7-7-7/5-5-5/7-7----------|
D---7-7---7-7---7-7---7-7---------|        x4
G---------------------------------|
A---------------------------------| (something like this)
E---------------------------------|

Lead Riff:
e--------------------------------|
B--------------------------------|
D-44-4/6/7/11-9/7/999------------|
G--------------------------------|
A-22-2/4/5/9--7/5/777------------|           x2
E--------------------------------|

Play Rhythm 1 for next verse, different strumming pattern.
Play Lead 1 over the entire verse.

Main Chorus:
e-----------------|
B-----------------|
G-1414-1212-55-77-|
D-----------------|
A-1212-1010-77-55-|
E-----------------|

Its not all perfecty, but piece it together ill tab out the rest another time because it takes time
Suggest correction
Give kudos to tab author, rate the tab!
1 2 3 4 5
comments
print report bad tab
3 comments total.
0 reply
xick 10 Mar 09, 2006 10:24 PM

the lead

e---------------------------------|
B--7-5--7-5--7-7-5----------------|
G---7----7----7-------------------|
D---------------------------------| x4
A---------------------------------|
E---------------------------------|

0 reply
firek 70 Mar 16, 2007 12:40 PM

I think its this

e---------------------------------|
B--7h5--7h5--7-7-5----------------|
G-----7----7--7-------------------|
D---------------------------------| x4
A---------------------------------|
E---------------------------------|

0 reply
Harrisfun 51 May 18, 2009 09:53 PM

Sherwood is ****ing amazing! great tab

guest
You may want to rate the tab now too:
select rating
Wanna post a correction for this tab? Suggest correction