Oops, an error
Loading. Please wait.

Abilene Tab

version 1
version 1

Whole song

Interactive

2,120 views 1 this week
no commentswrite comment
1 2 3 4 5
please rate
add to favorites
launch autoscroll
font size
0
reset
how to read this tab
guitar tuner
Autoscroll
slow
fast
+/-
esc
set tempo
stop
Help us to improve Ultimate-Guitar.com Take our survey!
×
Author
Saverain 3,612
----------------------------------------------------------------------------#
#-- File created with Instab - http://www.pconline.com/~smcarey/instab.html --#
#-----------------------------------------------------------------------------#

Author/Artist: Sheryl Crow
Title: Abilene

Apreggio strum throughout.

Tuning (eb A D G B E), Down ~ 10%, (eb, D) Down ~ 20%
Live Standard Tuning, Down ~ 10%
Key: (D + C#)


----|--------------------|--|
----|-2h3--3-3-3-3-3-2---|--|
----|-2----2-2-2-2-2-2---|--|
----|-2h4--4-4-4-5-4-2---|--|
----|--------------------|--|
----|--------------------|--|
                                                                              

  Intro/Verse



----|-----------------|
----|-3---5---3---3---|
----|-4---6---4---2---|
----|-5---7---5---0---|
----|-5---7---5---0---|
----|-----------------|
                                                                              

  Bridge



----|-------------------------------------------------------|
----|-------0------3------2-------------3------3------2-----|
----|-4-----1------2------2------4------2------2------2-----|
----|-4-----2------4------2------4------0------4------2-----|
----|-2-----2------5------0------2------0------5------0-----|
----|-------------------------------------------------------|
  

  Chorus  

   

----|-----------------------------------------3-/5--5--5/7-------7-\5--5-5-\2----|
----|--------------------5-\-3-\-2-\-0-------------------------------------------|
----|----------------------------------------------------------------------------|
----|----------------------------------------------------------------------------|
----|----------------------------------------------------------------------------|
----|----------------------------------------------------------------------------|
  

  G2 Live 


--5-/2------|-5--/9---9\7--5--5\2--0------------------------------------------|
------------|-------------------------5-/7-/9-/10--10-/12--\10-10\9-7--7\5-/7-|
------------|-----------------------------------------------------------------|
------------|-----------------------------------------------------------------|
------------|-----------------------------------------------------------------|
------------|-----------------------------------------------------------------|
Suggest correction new What's this?
You can suggest a correction to this tab. Community and Mods will review your correction and vote to approve or reject it.
comments
We did not receive enough feedback on this tab! Please rate:
print report bad tab
1 2 3 4 5
guest
You may want to rate the tab now too:
select rating
Please do not post tabs as comments. Select "correction" instead!