Oops, an error
Loading. Please wait.

Always On Your Side Tab

6,064 views 3 this week
2 commentsread comments
1 2 3 4 5
please rate
add to favorites
launch autoscroll
font size
0
reset
how to read this tab
guitar tuner
Autoscroll
slow
fast
+/-
esc
set tempo
stop
Help us to improve Ultimate-Guitar.com Take our survey!
×
Author
Difficulty
intermediate
sheryl crow- always on your side, feat. sting
standard tuning, no capo

there's a few parts where some things change.... u can figure them out...
it's not that hard... lol sorry to be so lazy but i just didn't feel like
writing it all out.... =]

intro:
-------1---1-3-5--5--1---------|
-3----------------3-----1--1---|
-3-----2----------3-----2----2-|
-3-----3----------3-----3------|
------------------------3------|
-1-----------------------------|

verse:
-1---1---1---1---1---1---1---1---|
-3---3---1---1---3---3---1---1---|
-3---3---2---2---3---3---2---2---|
---------3---3-----------3---3---|
---------------------------------|
-1-1---1---1---1---1---1---1---1-|
"My yesterday's are all boxed up, neatly put away."
“Everything was easy then,”

-1---1---1---1---3---3---3---3-1--|
-3---3---3---3---0---0---0---0-1--|
-2---2---2---2---0---0---0---0-2--|
-0-0---0--------------------------|
---------3-3---3-2-2---2---2------|
----------------------------------|
"But every now and then you come to mind."
“So sweet and innocent.”

-1---1---1---1---1---1---1---1---|
-3---3---1---1---3---3---0---0---|
-3---3---2---2---2---2---0---0-0-|
---------3---3---0-0---0---------|
-1-1---1-------------------------|
---------1-1---1---------3-3-----|
“Cause you were always waiting to be picked to play the game.”
“But my demons and my angels would appear.”

---------1---0---1---1---1---1---|
-3---3---1---1---3---3---3---3---|
-3---3---2---0---2---2---2---2---|
-3---3---3---2---0-0---0---------|
-1-1---1-3-3---3---------3-3---3-|
---------------------------------|
“But when your name was called you found a place to hide.”
“Leaving only traces of the man you thought I’d be, too afraid to hear the words I’d 
feared.”

---------1---0---1---1---1---1-3-5-5---1----1---|
-3---3---1---1---3---3---1---------3---1-1--1---|
-3---3---2---0---2---2---2---------3---2-2----2-|
-3---3---3---2---0-0---0-----------3-3---3------|
-1-1---1-3-3---3-----------3-------------3------|
------------------------------------------------|
“When you knew that I was always on your side.”
“Leaving you with only questions all these years.”

Chorus:
-1---1---1---1---0---0---0---0---1---1---1---1---1---3---3---3---3-1---|
-3---3---3---3---1---1---1---1---1---1---1---1---1---0---0---0---0-----|
-2---2---2---2---0---0---0---0---2---2---2---2---2---0---0---0---0-----|
-0-0---0---0---0-----------------3-------------------------------------|
-----------------3-3---3---3---3-3-3---3---3---3---3-------------------|
-----------------------------------------------------3-3---3---3-------|
"Is there someplace far away, someplace where all is clear...."

---------------------------------------------1---------------0----|
-3---3---3---3---4---4---4---4---3---3---3---1---3---3---3---0----|
-3---3---3---3---3---3---3---3---3---3---3---2---3---3---3---0----|
-3---3---3---3---5---5---5---5---5---5---5-------3---3---3---0----|
-1-1---1---1---1-6-6---6---6---0---------------0-1-1---1---0---0--|
---------------------------------3-3---3---3----------------------|
"Or are you left to wander, all alone eternally..."

-------------1---------------0----|
-3---3---3---1---3---3---3---1----|
-3---3---3---2---3---3---3---0----|
-5---5---5-------3---3---3--------|
---------------0-1-1---1---1------|
-3-3---3---3----------------------|
"No this isn't how it's really meant to be."

Back to verse, then chorus, then verse... u get the idea...
Suggest correction
What's this?
You can suggest a correction to this tab. Community and Mods will review your correction and vote to approve or reject it.
comments
We did not receive enough feedback on this tab! Please rate:
print report bad tab
1 2 3 4 5
2 comments total.
0 reply
oXygEn_WaSteR 372 wrote on May 13 2006, 02:22 am

sorry guys... i messed up when i was tabbing the verse out.... goes like this...

-1---1---1---1---1---1---1---1---|
-3---3---1---1---3---3---1---1---|
-3---3---2---2---3---3---2---2---|
---------3---3-----------3---3---|
---------3--3--3---3---3---3-----|
-1-1---1-------------------------|

0 reply
oXygEn_WaSteR 372 wrote on November 1 2006, 02:48 am

nvm......... maybe.....? ... lol

guest
You may want to rate the tab now too:
select rating
Please do not post tabs as comments. Select "correction" instead!