Oops, an error
Loading. Please wait.

If It Makes You Happy tab

version 3
version 3

Whole song

Interactive

4,835 views 15 this week
3 commentsread comments
1 2 3 4 5
1 last vote to show rating
add to favorites
×
Save as Personal and add changes to this tab that will be seen only by you. Learn more ›
×
You can save this tab as Personal to edit and correct it or add notes. All changes will be seen only by you. Learn more »
launch autoscroll
font size
0
reset
how to read this tab
guitar tuner
edit
Autoscroll
slow
fast
+/-
esc
set tempo
stop
Author
Difficulty
Another attempt to tab this beautiful, "simple" song for one acoustic guitar. It 
is for sure not perfect (rhythm pattern and changes) – please comment to improve.

The tab is based on the following YouTube videos:

video 1:
title: Sheryl Crow - "If it Makes You Happy" - acoustic / solo, 
posted by "MoreSherylCrow" (thanks for posting!)
(www.youtube.com/watch?v=gHgq8GLbXTs&feature=related)

video 2:
title: If it Makes You Happy
posted by "mc3067" (is a great help, thanks a lot!)
(www.youtube.com/watch?v=wFKdndcMK5o&feature=related)

Chords:
G             3x0003
Gsus2sus4     3x0213 (G*)
C             x32010
Fmaj9(no 3rd) x33010 (F*)
D             xx0232
Dsus4         xx0233 (D*)
Am            x02210
Asus4         x02230 (A*)
Cadd9         x32030 (C*)

Intro:
  G             G*               G              G*              G
e :----3---3-3-3-3-:----3---3-3-3-3-:----3---3-3-3-3-:----3---3-3-3-3-:
B :----0---0-0-0-1-:----1---1-1-1-0-:----0---0-0-0-1-:----1---1-1-1-0-:
G :----0---0-0-0-2-:----2---2-2-2-0-:----0---0-0-0-2-:----2---2-2-2-0-:
D :0---0---0-0-0-0-:0---0---0-0-0-0-:0---0---0-0-0-0-:0---0---0-0-0-0-:
A :x---x---x-x-x-x-:x---x---x-x-x-x-:x---x---x-x-x-x-:x---x---x-x-x-x-:
E :3---3---3-3-3-3-:3---3---3-3-----:3---3---3-3-3-3-:3---3---3-3-3-3-:
...d...d...d.u.d.u.

  G             G*               G              G*              G
e :----3---3-3-3-3-:----3---3-3-3-3-:----3---3-3-3-3-:----3---3-3-3-3-:
B :----0---0-0-0-1-:----1---1-1-1-0-:----0---0-0-0-1-:----1---1-1-1-0-:
G :----0---0-0-0-2-:----2---2-2-2-0-:----0---0-0-0-2-:----2---2-2-2-0-:
D :0---0---0-0-0-0-:0---0---0-0-0-0-:0---0---0-0-0-0-:0---0---0-0-0-0-:
A :x---x---x-x-x-x-:x---x---x-x-x-x-:x---x---x-x-x-x-:x---x---x-x-x-x-:
E :3---3---3-3-3-3-:3---3---3-3-3-3-:3---3---3-3-3-3-:3---3---3-3-3-3-:
                                                            I've been

Verse
   G            G*               G              G*               G
e :----3---3-3-3-3-:----3---3-3-3-3-:----3---3-3-3-3-:----3---3-3-3-3-:
B :----0---0-0-0-1-:----1---1-1-1-0-:----0---0-0-0-1-:----1---1-1-1-0-:
G :----0---0-0-0-2-:----2---2-2-2-0-:----0---0-0-0-2-:----2---2-2-2-0-:
D :0---0---0-0-0-0-:0---0---0-0-0-0-:0---0---0-0-0-0-:0---0---0-0-0-0-:
A :x---x---x-x-x-x-:x---x---x-x-x-x-:x---x---x-x-x-x-:x---x---x-x-x-x-:
E :3---3---3-3-3-3-:3---3---3-3-3-3-:3---3---3-3-3-3-:3---3---3-3-3-3-:
  long,            along way from here       

   G G*G G*  G       G*G G* G        G*G G* G      C     F*  C
e :3-3-3-3---3-3---:3-3-3-3---3-3---:3-3-3-3---3-3---:0-0-0-0---0-0---:
B :0-1-0-1---0-0---:0-1-0-1---0-0---:0-1-0-1---0-0---:1-1-1-1---1-1---:
G :0-2-0-2---0-0---:0-2-0-2---0-0---:0-2-0-2---0-0---:0-0-0-0---0-0---:
D :0-0-0-0---0-0---:0-0-0-0---0-0---:0-0-0-0---0-0---:2-2-2-3---2-2---:
A :x-x-x-x---x-x---:x-x-x-x---x-x---:x-x-x-x---x-x---:3-3-3-3---3-3---:
E :3-3-3-3---3-3---:3-3-3-3---3-3---:3-3-3-3---3-3---:----------------:
Put on a poncho, played for mosquitoes, And drank 'til I was thirsty again

   G            G*              G               G*               G
e :----3---3-3-3-3-:----3---3-3-3-3-:----3---3-3-3-3-:----3---3-3-3-3-:
B :----0---0-0-0-1-:----1---1-1-1-0-:----0---0-0-0-1-:----1---1-1-1-0-:
G :----0---0-0-0-2-:----2---2-2-2-0-:----0---0-0-0-2-:----2---2-2-2-0-:
D :0---0---0-0-0-0-:0---0---0-0-0-0-:0---0---0-0-0-0-:0---0---0-0-0-0-:
A :x---x---x-x-x-x-:x---x---x-x-x-x-:x---x---x-x-x-x-:x---x---x-x-x-x-:
E :3---3---3-3-3-3-:3---3---3-3-3-3-:3---3---3-3-3-3-:3---3---3-3-3-3-:
We went searching through thrift store jungles                Found

   G G*G G*  G       G*G G* G        G*G G* G      C     F*  C
e :3-3-3-3---3-3---:3-3-3-3---3-3---:3-3-3-3---3-3---:0-0-0-0---0-0---:
B :0-1-0-1---0-0---:0-1-0-1---0-0---:0-1-0-1---0-0---:1-1-1-1---1-1---:
G :0-2-0-2---0-0---:0-2-0-2---0-0---:0-2-0-2---0-0---:0-0-0-0---0-0---:
D :0-0-0-0---0-0---:0-0-0-0---0-0---:0-0-0-0---0-0---:2-2-2-3---2-2---:
A :x-x-x-x---x-x---:x-x-x-x---x-x---:x-x-x-x---x-x---:3-3-3-3---3-3---:
E :3-3-3-3---3-3---:3-3-3-3---3-3---:3-3-3-3---3-3---:----------------:
Geronimo's rifle, Marilyn's lipstik And Benny Goodman's corset and pen

   C     F*  C     D     D*  D     C     F*  C     D
e :0-0-0-0---0-0---:2-2-2-3---2-2---:0-0-0-0---0-0---:2-2-2-2-x-------:
B :1-1-1-1---1-1---:3-3-3-3---3-3---:1-1-1-1---1-1---:3-3-3-3-x-------:
G :0-0-0-0---0-0---:2-3-2-2---2-2---:0-0-0-0---0-0---:2-2-2-2-x-------:
D :2-2-2-3---2-2---:0-0-0-0---0-0---:2-3-2-3---2-2---:0-0-0-o-x-------:
A :3-3-3-3---3-3---:----------------:3-3-3-3---3-3---:----------------:
E :----------------:----------------:----------------:----------------:
Well, o.k. I made this up        I promised you I'd never give up  

   N.C.            Am        A*Am  C         C*C   G        G*G
e :----------------:0---0---0-0-0-0-:0---0---0-0-0-0-:3---3---3-3-3-3-:
B :----------------:1---1---1-3-1-1-:1---1---1-3-1-1-:0---0---0-1-0-0-:
G :----------------:2---2---2-2-2-2-:0---0---0-0-0-0-:0---0---0-2-0-0-:
D :----------------:2---2---2-2-2-2-:2---2---2-2-2-2-:0---0---0-0-0-0-:
A :----------------:0---0---0-0-0-0-:3---3---3-3-3-3-:x---x---x-x-x-x-:
E :----------------:----------------:----------------:3---3---3-3-3-3-:
  If it makes you happy          It can't be that bad

   D        D*D    Am       A*Am   C         C*C   G         G*G
e :2---2---2-3-2-2-:0---0---0-0-0-0-:0---0---0-0-0-0-:3---3---3-3-3-3-:
B :3---3---3-3-3-3-:1---1---1-3-1-1-:1---1---1-3-1-1-:0---0---0-1-0-0-:
G :2---2---2-2-2-2-:2---2---2-2-2-2-:0---0---0-0-0-0-:0---0---0-2-0-0-:
D :0---0---0-0-0-0-:2---2---2-2-2-2-:2---2---2-2-2-2-:0---0---0-0-0-0-:
A :----------------:0---0---0-0-0-0-:3---3---3-3-3-3-:x---x---x-x-x-x-:
E :----------------:----------------:----------------:3---3---3-3-3-3-:
  If it makes you happy      Then why the hell are you so sad

   G            G*                 G               G*            G
e :----3---3-3-3-3-:----3---3-3-3-3-:----3---3-3-3-3-:----3---3-3-3-3-:
B :----0---0-0-0-1-:----1---1-1-1-0-:----0---0-0-0-1-:----1---1-1-1-0-:
G :----0---0-0-0-2-:----2---2-2-2-0-:----0---0-0-0-2-:----2---2-2-2-0-:
D :0---0---0-0-0-0-:0---0---0-0-0-0-:0---0---0-0-0-0-:0---0---0-0-0-0-:
A :x---x---x-x-x-x-:x---x---x-x-x-x-:x---x---x-x-x-x-:x---x---x-x-x-x-:
E :3---3---3-3-3-3-:3---3---3-3-----:3---3---3-3-3-3-:3---3---3-3-3-3-:
                                                           You get (repeat pattern Verse 1)

Verse 2:
You get down, real low down
You listen to coltrane, derail your own train
Well who hasn't been there before?
I come round, around the hard way
Bring you comics in bed,
Scrape the mold off the bread,
And serve you french toast again
Well, o.k. I still get stoned
I'm not the kind of girl you'd take home

Repeat Chorus twice, second time ending with:
  D        D* D   Am       A* A    C       C* C   Em
e:2---2---2-3-2-2-:0---0---0-0-0-0-:0---0---0-0-0-0-:0---0-0---0-0---:
B:3---3---3-3-3-3-:1---1---1-3-1-1-:1---1---1-3-1-1-:0---0-0---0-0---:
G:2---2---2-2-2-2-:2---2---2-2-2-2-:0---0---0-0-0-0-:0---0-0---0-0---:
D:0---0---0-0-0-0-:2---2---2-2-2-2-:2---2---2-2-2-2-:2---2-2---2-2---:
A:----------------:0---0---0-0-0-0-:3---3---3-3-3-3-:2---2-2---2-2---:
E:----------------:----------------:----------------:0---0-0---2-2---:
  If it makes you happy      Then why the hell are you so sad

  Em              C         C*C                   Em        E*Em
e:0---------------:----0-0---3-0---:0---------------:----0-0---3-0---:
B:0---------------:----1-1---1-1---:1---------------:----0-0---0-0---:
G:0---------------:----0-0---0-0---:0---------------:----0-0---0-0---:
D:2-------5---4---:----2-2---2-2---:2-------5---4---:----2-2---2-2---:
A:2-----5---5---5-:3---3-3---3-3---:3-----5---5---5-:----2-2---2-2---:
E:0---------------:----------------:----------------:0---0-0---0-0---:

  Em              C
e:0---------------:----0-0---0-0---:0---0-0---0-0---:0---0-0---0-0---:
B:0---------------:----1-1---1-1---:1---1-1---1-1---:1---1-1---1-1---:
G:0---------------:----0-0---0-0---:0---0-0---0-0---:0---0-0---0-0---:
D:2-------5---4---:----2-2---2-2---:2---2-2---2-2---:2---2-2---2-2---:
A:2-----5---5---5-:3---3-3---3-3---:3---3-3---3-3---:3---3-3---3-3---:
E:0---------------:----------------:----------------:----------------:

   G            G*                 G               G*            G
e :----3---3-3-3-3-:----3---3-3-3-3-:----3---3-3-3-3-:----3---3-3-3-3-:
B :----0---0-0-0-1-:----1---1-1-1-0-:----0---0-0-0-1-:----1---1-1-1-0-:
G :----0---0-0-0-2-:----2---2-2-2-0-:----0---0-0-0-2-:----2---2-2-2-0-:
D :0---0---0-0-0-0-:0---0---0-0-0-0-:0---0---0-0-0-0-:0---0---0-0-0-0-:
A :x---x---x-x-x-x-:x---x---x-x-x-x-:x---x---x-x-x-x-:x---x---x-x-x-x-:
E :3---3---3-3-3-3-:3---3---3-3-----:3---3---3-3-3-3-:3---3---3-3-3-3-:
                                                           We ve been

We've been far, far away from here
Put on a poncho, played for mosquitos,
And everywhere in between
Well, o.k. we get along
So what if right now everything's wrong?

Repeat Chorus

Alternative change from G* to G
   G*              G              
e :----3---3-------:----3---3-3-3-3-:
B :----1---1-------:----0---0-0-0-1-:
G :----2---2-----0-:----0---0-0-0-2-:
D :0---0---0-0h2---:0---0---0-0-0-0-:
A :x---x---x-------:x---x---x-x-x-x-:
E :3---3---3-------:3---3---3-3-3-3-:
or
   G*              G              
e :----3---3-------:----3---3-3-3-3-:
B :----1---1-----0-:----0---0-0-0-1-:
G :----2---2-0h2---:----0---0-0-0-2-:
D :0---0---0-------:0---0---0-0-0-0-:
A :x---x---x-------:x---x---x-x-x-x-:
E :3---3---3-------:3---3---3-3-3-3-:
Suggest correction
Creating personal tab
Creating personal tab
You can edit any tab online and save it as your Personal.

You can edit, replace or remove any tab part or add personal notes – all changes will be seen only by you.

Personal tabs can be accessed anytime from any device, even offline.
Learn more »
Give kudos to tab author, rate the tab!
1 2 3 4 5
comments
print report bad tab
3 comments total.
+2 reply
deanr9999 10 May 14, 2014 09:42 PM

Ironically this does not make me happy

0 reply
DopeAmino 41 Sep 28, 2014 05:40 AM

Best comment ever

0 reply
tomdumbsteen 10 Dec 15, 2014 02:17 AM

legit lulz

guest
You may want to rate the tab now too:
select rating
Wanna post a correction for this tab? Suggest correction