Oops, an error
Loading. Please wait.

Real Gone bass

version 1
version 1

Whole song

Interactive

4,722 views 6 this week
1 commentread comment
1 2 3 4 5
x 4
add to favorites
×
Save as Personal and add changes to this tab that will be seen only by you. Learn more ›
×
You can save this tab as Personal to edit and correct it or add notes. All changes will be seen only by you. Learn more »
launch autoscroll
font size
0
reset
guitar tuner
edit
Autoscroll
slow
fast
+/-
esc
set tempo
stop
Difficulty
Hi Everyone,

There are a few on the internet that are very very wrong. Here is a 100% correct tab. 
a fun song to play, and can be funked up when played live with octaves to make it even 
fun.

Standard tuning (EADG)

Bass comes in at "I gotta say it" with this, listen for exact timings. Take note of the 
it sounds bad without it.

G|----------------|----------------|----------------|----------------|
D|----------------|----------------|----------------|----------------|
A|12\2222222222222|2222222222222222|2222222222222222|2222222222222222|
E|----------------|----------------|----------------|----------------|


Chorus, "Slow Down, we're gonna crash"

G|----------------|----------------|----------------|----------------|
D|----------------|----------------|----------------|----------------|
A|----------------|5-5-5-5-5-5-5-5-|----------------|----------------|
E|7-7-7-7-7-7-7-7-|----------------|3-3-3-3-3-3-3-3-|5-5-5-5-5-5-5-5-|

Main Riff/Verse, "Real Gone", take note of the mute second time round.

G|----------------|----------------|
D|----------------|----------------|
A|------5-5---7-7-|-------5-5--0-0-|
E|7-7-------------|7-7-7-----------|

G|----------------|----------------|
D|----------------|----------------|
A|------5-5---7-7-|-------5-5--0x--|
E|7-7-------------|7-7-7-----------|

No bass at "There's a new cat in town", come back in at "You know him so well" with 
You can put a slide in here if you wish.

G|----------------|----------------|
D|----------------|----------------|
A|------5-5---7-7-|-------5-5--0-0-|
E|7-7-------------|7-7-7-----------|

Chorus "Slow down, we're gonna crash".

G|----------------|----------------|----------------|----------------|
D|----------------|----------------|----------------|----------------|
A|----------------|5-5-5-5-5-5-5-5-|----------------|----------------|
E|7-7-7-7-7-7-7-7-|----------------|3-3-3-3-3-3-3-3-|5-5-5-5-5-5-5-5-|

At "Everybody's looking for a way" I just mess around with octaves, be creative.

At "You can say what you want", its just bass with this riff again.

G|----------------|----------------|
D|----------------|----------------|
A|------5-5---7-7-|-------5-5--0-0-|
E|7-7-------------|7-7-7-----------|

Then chorus until "Real Gone".

G|----------------|----------------|----------------|----------------|
D|----------------|----------------|----------------|----------------|
A|----------------|5-5-5-5-5-5-5-5-|----------------|----------------|
E|7-7-7-7-7-7-7-7-|----------------|3-3-3-3-3-3-3-3-|5-5-5-5-5-5-5-5-|

At "Real Gone", go back to this riff.

G|----------------|----------------|
D|----------------|----------------|
A|------5-5---7-7-|-------5-5--0-0-|
E|7-7-------------|7-7-7-----------|

End.

G|----------------|----------------|
D|----------------|----------------|
A|0x--------------|----------------|
E|----------------|----------------|

Mute the note before "Real gone".

Enjoy!

bassmastar_gaz

            
            
Suggest correction
Creating personal tab
Creating personal tab
You can edit any tab online and save it as your Personal.

You can edit, replace or remove any tab part or add personal notes – all changes will be seen only by you.

Personal tabs can be accessed anytime from any device, even offline.
Learn more »
comments
print report bad tab
1 comment total.
0 reply
teh-funnay 288 Jul 28, 2011 09:33 PM

Definitely not 100% correct.

guest
Wanna post a correction for this tab? Suggest correction