Oops, an error
Loading. Please wait.

Soak Up The Sun Tab

version 1
version 1

Whole song

Interactive

1,577 views 39 this week
no commentswrite comment
1 2 3 4 5
3 more votes to show rating
add to favorites
×
Save as Personal and add changes to this tab that will be seen only by you. Learn more ›
×
You can save this tab as Personal to edit and correct it or add notes. All changes will be seen only by you. Learn more »
save as personal
new!
launch autoscroll
font size
0
reset
how to read this tab
guitar tuner
Autoscroll
slow
fast
+/-
esc
set tempo
stop
Author
#----------------------------------PLEASE NOTE--------------------------------#
#This file is the author's own work and represents their interpretation of the#
#song. You may only use this file for private study, scholarship, or research.#
#-----------------------------------------------------------------------------#
#-- File created with Instab - http://www.pconline.com/~smcarey/instab.html --#
#-----------------------------------------------------------------------------#

Author/Artist: Sheryl Crow
Title: Soak Up The Sun

/ slide up
 
Palm mute all.


Tuning (eb A D G B E), (eb, D) Down ~ 10%
Key: (E + D)


----|---------------------------------------|--|
----|---------9-----------------------------|--|
----|------------9------------------9-------|--|
----|-9-7-9-------------------------7-------|--|
----|-7-7-7---------------9---9---7-7---7---|--|
----|---------------------8---8---6---------|--|
                                    A

  Intro/Verse



----|-----------------------------|--|
----|-9-----7----------5--5--7----|--|
----|-9-----8----6--6--6--6--8----|--|
----|-9-----9----7--7--7--7--9----|--|
----|-7-----9----9--9--7--7--9----|--|
----|-----------------------------|--|
  

  Chorus



----|-----------------------------|------|
----|-9---7---7--5--9---7---------|------|
----|-9---8---7--6--9---8---------|------|
----|-9---9---7--7--9---9---1--3--|-4----|
----|-7---6---5--4--7---6---1--3--|-5--4-|
----|-----------------------------|----6-|
  

  Bridge                         
Suggest correction
Give kudos to tab author, rate the tab!
1 2 3 4 5
comments
print report bad tab
guest
You may want to rate the tab now too:
select rating
Wanna post a correction for this tab? Suggest correction