Oops, an error
Loading. Please wait.

Steve Mcqueen Tab

version 1
version 1

Whole song

13,680 views 15 this week
4 commentsread comments
1 2 3 4 5
x 5
add to favorites
×
Save as Personal and add changes to this tab that will be seen only by you. Learn more ›
×
You can save this tab as Personal to edit and correct it or add notes. All changes will be seen only by you. Learn more »
save as personal
new!
launch autoscroll
font size
0
reset
how to read this tab
guitar tuner
Autoscroll
slow
fast
+/-
esc
set tempo
stop
Steve McQueen, from Sheryl Crow album _C'mon,_C'mon_ (track #1)


Drop the A string down to G

    Main
e-------------------------------------------------------------------|
B-------------------------------------------------------------------|
G-------------------------------------------------------------------|
D---0--0-0--0-0-0--3--3-2-2-0--0-0--0-----0-0-0-0-------------------|
G---0--3-4--0-0-0--0--0-0-0-0--3-4--0-----0-0-3-0-------------------|
E-------------------------------------1-2---------------------------|

                                         Chords throughout song
    Arpegio chords between "Main"        G   F   C
e----------------3------------------ e---3---1---8-----------------|
B-------1--------------------------- B---3---1---5-----------------|
G-----0--------0-------------------- G---0---2---5-----------------|
D---2--------3---------------------- D---0---3---5-----------------|
G----------------------------------- G---0-------5-----------------|
E----------------------------------- E---3-------5-----------------|


transcribed by Steven Vore http://svore.home.mindspring.com
Suggest correction
comments
print report bad tab
4 comments total. Showing first comments.
0 reply
Robnfguitarplay 42 Jun 22, 2006 11:25 AM

Main
e-------------------------------------------------------------------|
B-------------------------------------------------------------------|
G-------------------------------------------------------------------|
D-------------------------------------------------------------------|
A---5-5--7--5-5-7-5-----5-5--7--5-5-7-5-----------------------------|
E---3-3--3--3-3-3-3-1-2-3-3--3--3-3-3-3-----------------------------|

e----------------3------------------ e---3---1---3-----------------|
B-------1--------------------------- B---3---1---5-----------------|
G-----0--------0-------------------- G---4---2---5-----------------|
D---2--------3---------------------- D---5---3---5-----------------|
G----------------------------------- A---5---3---3-----------------|
E----------------------------------- E---3---1---------------------|

Why make this song harder then what it is.

0 reply
c.wayne.burr 10 Dec 27, 2015 07:15 AM

Works well for me!

0 reply
Who66 1,186 May 05, 2016 11:28 AM

Is it not full open G?

guest
Wanna post a correction for this tab? Suggest correction