Oops, an error
Loading. Please wait.

Strong Enough Tab

version 2
version 2

Whole song

Interactive

45,297 views 33 this week
no commentswrite comment
1 2 3 4 5
excellent!
x 18
add to favorites
launch autoscroll
font size
0
reset
how to read this tab
guitar tuner
Tab Pro tools
  • play this tab
  • loop segment
  • change instrument
  • show fretboard
  • metronome
×
Best way to learn
"Strong Enough"
Autoscroll
slow
fast
+/-
esc
set tempo
stop
Contributor
Difficulty
novice
 Intro/Verse:

e|--2-----0h2-----|----------------|
B|--------------0-|--3-------3---2-|
G|--2---2---------|--------0-------|
D|0---0---------0-|--4---4-------2-|
A|----------------|2---2-------0---|
E|------------3---|----------------|



  1st Interlude:        (play 2 times)

e|------------------|----------------|
B|--------3-------0-|--3---3-3-3-3-2-|
G|--2-----2-------0-|--2---2-2-2-2-2-|
D|--2h4-----2p0-----|--4---4-4-4-2-2-|
A|------------------|----------------|
E|--------------3---|----------------|



  Chorus:("Lie to me..")

e|------0-----------|------0-----------|------------------|------0-----------|
B|----0---0---0---3-|----0---0---0---2-|------0-----0---1-|----0---0---0---2-|
G|--0-------0-----2-|--0-------2-----2-|----0-----0-----0-|--0-------2-----2-|
D|------------------|------------------|--4-----4---------|------------------|
A|------------------|--------------0---|2-------------3---|--------------0---|
E|0-------------2---|3-----------------|------------------|3-----------------|



  2nd Interlude:(pedal steel)(play 4 times)    (play 3 times)

e|--------15p14-------|-------------------||--2-----0h2-----|
B|--------------15----|15~~~~~------15p14-||--------------0-|
G|15-15------------14-|14h16--14h16-14----||--2---2---------|
D|14-14---------------|-------------------||0---0---------0-|
A|--------------------|-------------------||----------------|
E|--------------------|-------------------||------------3---|



                  (play 3 1/2 times)

e|----------------|--2-----0h2-----|
B|--3-------3---2-|--------------0-|
G|--------0-------|--2---2---------|
D|--4---4-------2-|0---0---------0-|
A|2---2-------0---|----------------|
E|----------------|------------3---|



  3rd Interlude:      (play 4 times)

e|--2-2-2-2-2---2-|--2-2-2-2-2---0-|
B|--3-3-3-3-3---3-|--3-3-3-3-3---2-|
G|--2-2-2-2-2-0---|4-4-4-4-4-4-2---|
D|0---------------|----------------|
A|----------------|----------------|
E|----------------|----------------|

comments
print report bad tab
I want to post or [tab]
guest
You may want to rate the tab now too:
select rating
Please do not post tabs as comments. Select "correction" instead!