Oops, an error
Loading. Please wait.

The First Cut Is The Deepest Tab

version 1
version 1

Intro

Interactive

24,207 views 9 this week
5 commentsread comments
1 2 3 4 5
x 12
add to favorites
launch autoscroll
font size
0
reset
how to read this tab
guitar tuner
backing track
0:00
0:00
×
Best way to learn
"The First Cut Is The Deepest"
Autoscroll
slow
fast
+/-
esc
set tempo
stop
Author
[Intro]
e|-2--2-2h3-2-3/5-5---0h2-0---|
B|-3--------------0--------3--|
G|-2--------------0-----------|  (x2)
D|-0--------------0-----------|
A|----------------------------|
E|----------------------------|

  D  A  G
e|-2--0--3-----|
B|-3--2--0-----|
G|-2--2--0-----|
D|-0--2--0-----|
A|----0--2-----|
E|-------3-----|


************************************

| h  Hammer-on
| /  Slide up

************************************
Suggest correction
comments
print report bad tab
5 comments total. Showing first comments.
0 reply
zyphantolice 10 Mar 22, 2004 07:00 PM

The intro tabs in 100% accurate! D A G chords are sound a little different when play along with the CD.

0 reply
grlwhoplysgitar 42 Jul 25, 2005 08:00 PM

this is the way ....

e|-2--2-2h3-2-3/5-2---0h2-0---|
B|-3--------------2--------3--|
G|-2--------------2-----------|x2, and start strumming the chordsbelow
D|-0--------------2-----------|
A|----------------------------|
E|----------------------------|
good tab though

0 reply
grlwhoplysgitar 42 Jul 25, 2005 08:00 PM

oops...leave the 1st strin open instead of fret 2

guest
You may want to rate the tab now too:
select rating
Wanna post a correction for this tab? Suggest correction