Oops, an error
Loading. Please wait.

Friends Tab

67 views 1 this week
1 commentread comment
1 2 3 4 5
3 more votes to show rating
add to favorites
launch autoscroll
font size
0
reset
how to read this tab
guitar tuner
Autoscroll
slow
fast
+/-
esc
set tempo
stop
Help us to improve Ultimate-Guitar.com Take our survey!
×
Author
-------------------------------------------------------------------------------
                  FRIENDS - Shh... This is A Library
-------------------------------------------------------------------------------
Tabbed by:Volpone

Tuning: Standard


Verse

e|-------------------------------------7+---------------------------|
B|-----0-----1p0--------------------------7+------------------------|
G|----------------0----------4-----4---------7+---------------------|
D|-------------------0/2--4-----4-----------------------------------|
A|--3-----3---------------------------------------------------------|
E|------------------------------------------------------------------|

Chorus
e|------------------------------------------------------------------|
B|-----0-----1p0----------------------------------------------------|
G|----------------0----------4-----4--------------------------------|
D|-------------------0/2--4-----4-----------------------------------|
A|--3-----3----------------------------2----------------------------|
E|----------------------------------------3-------------------------|

Outro
e|------------------------------------------------------------------|
B|------------------------------------------------------------------|
G|------------------------------------------------------------------|
D|------------------------------------------------------------------|
A|--------------/7--7-----------------------------------------------|
E|--5--5--5--5---------7--3-----------------------------------------|



Chords of the Chorus are

C            Em    Bm G
x  x  x  x  |x  x  x  X  |



************************************

| /   slide up
| p   pull-off
| +   harmonic

************************************

As requeseted, official website is http://www.myspace.com/shhthisisalibrary
Records bought on http://www.ihadanaccidentrecords.com/releases/ih017.html
Suggest correction
Give kudos to tab author, rate the tab!
1 2 3 4 5
comments
print report bad tab
1 comment total.
0 reply
Volpone 687 Apr 19, 2010 12:33 PM

Verse part is actually like this. One note wrong ¬.¬


e|------------------------------------------------------------------|
B|-----0-----1p0--------------------------7+------------------------|
G|----------------0----------4-----4---5+----7+---------------------|
D|-------------------0/2--4-----4-----------------------------------|
A|--3-----3---------------------------------------------------------|
E|------------------------------------------------------------------|

guest
You may want to rate the tab now too:
select rating
Wanna post a correction for this tab? Suggest correction