Oops, an error
Loading. Please wait.

Sanda Savi intro tab

202 views 3 this week
3 commentsread comments
1 2 3 4 5
2 more votes to show rating
add to favorites
×
Save as Personal and add changes to this tab that will be seen only by you. Learn more ›
×
You can save this tab as Personal to edit and correct it or add notes. All changes will be seen only by you. Learn more »
launch autoscroll
font size
0
reset
how to read this tab
guitar tuner
edit
Autoscroll
slow
fast
+/-
esc
set tempo
stop
Author
Difficulty
-------------------------------------------------------------------------------
                          Sanda Sawi - Shihan Mihiranga
-------------------------------------------------------------------------------
Tabbed by: B.L.Gayal Kasunjith
E-mail: gkasunjith@gmail.com

Tuning: Standard
   
    Em                         Cmaj                   Dmaj


e|-----------------------|---------------------|------------0-h2p0-------------|
B|-------------0-h1p0----|----------0-h1p0-----|---------3----------3----------|
G|----------0----------0-|-------0---------0---|------2------------------------|
D|-------2---------------|-----2---------------|----0--------------------------|
A|----2------------------|---3-----------------|-------------------------------|
E|-----------------------|---------------------|-------------------------------|
  


Em
naa naa nanana naa nah...//

      Am         D       Em
obada maa epa ki adare //

B                           Em
ada oba mage sanda saaviya weela

B                                      Em
mage vu thol pethi ada wena keku hata deela ...//

C            D           Em
obata maa thawamath aadarei .... //


B .   . .. . . 
ada oba mage sanda saviyaaaa


    Em                         Cmaj                   Dmaj

e|-----------------------|---------------------|------------0-h2p0-------------|
B|-------------0-h1p0----|----------0-h1p0-----|---------3----------3----------|
G|----------0----------0-|-------0---------0---|------2------------------------|
D|-------2---------------|-----2---------------|----0--------------------------|
A|----2------------------|---3-----------------|-------------------------------|
E|-----------------------|---------------------|-------------------------------|


   if you play box guitar (if you play electric guitar use the bending techniques)
   (very hard to bend my box guitar :P)

e|-----------------------|--------14-14hp15--------|-------------------------------|
B|---17-----13----15-----|--17-----------------17--|-------------------------------|
G|-----------------------|-------------------------|-------------------------------|
D|-----------------------|-------------------------|-------------------------------|
A|-----------------------|-------------------------|-------------------------------|
E|-----------------------|-------------------------|-------------------------------|


 B                Em
obata aadarei ki dawase

B                        Em
mathakai oya as natuwa hora rahase...//

 C            D
mata aadarei kiya

      C               D
thol matha haaduwak thiyaa

 B            Em
pawasanna a aadaree



    Em                         Cmaj                   Dmaj

e|-----------------------|---------------------|------------0-h2p0-------------|
B|-------------0-h1p0----|----------0-h1p0-----|---------3----------3----------|
G|----------0----------0-|-------0---------0---|------2------------------------|
D|-------2---------------|-----2---------------|----0--------------------------|
A|----2------------------|---3-----------------|-------------------------------|
E|-----------------------|---------------------|-------------------------------|


     Em       Cmaj                   Dmaj
e|-----------------------|--------14-14hp15--------|-------------------------------|
B|---17-----13----15-----|--17-----------------17--|-------------------------------|
G|-----------------------|-------------------------|-------------------------------|
D|-----------------------|-------------------------|-------------------------------|
A|-----------------------|-------------------------|-------------------------------|
E|-----------------------|-------------------------|-------------------------------|



    


************************************

| /   slide up
| \   slide down
| h   hammer-on
| p   pull-off
| ~   vibrato
| +   harmonic
| x   Mute note
| b   Bend
| pb  Pre-bend
| br  Bend release
| pbr Pre-bend release
| brb Bend release bend

************************************

            
            
Suggest correction
Creating personal tab
Creating personal tab
You can edit any tab online and save it as your Personal.

You can edit, replace or remove any tab part or add personal notes – all changes will be seen only by you.

Personal tabs can be accessed anytime from any device, even offline.
Learn more »
Give kudos to tab author, rate the tab!
1 2 3 4 5
comments
print report bad tab
3 comments total.
0 reply
gkasunjith 44 Aug 29, 2015 06:39 PM

this is my first tabs
and i think this is totally fine.,..

0 reply
L.K.F.S.R 452 Dec 07, 2015 11:41 AM

some little improvement needs to be made but the tune is here , good job

0 reply
gkasunjith 44 Sep 27, 2016 01:35 AM

Thank you

guest
You may want to rate the tab now too:
select rating
Wanna post a correction for this tab? Suggest correction