Oops, an error
Loading. Please wait.

45 Bass

version 1
version 1

Whole song

Interactive

14,390 views 24 this week
3 commentsread comments
1 2 3 4 5
x 7
add to favorites
launch autoscroll
font size
0
reset
guitar tuner
backing track
0:00
0:00
×
Best way to learn
"45"
Autoscroll
slow
fast
+/-
esc
set tempo
stop
Author
standard tuning

 verse
|------------------------------------------------|
|------------------------------------------------|
|---------------------3------3------3------3-----|
|-0-----2-----3----------------------------------|

pre-chorus
|-----------------------------------|
|-------5/7---5-4-------------------|
|------------------7----------7—5---|
|-5-------------------------------5-|

|---------------------------------------|
|---------------------------------------|
|---------------------------------------|
|-5---5-5-------3-3-3-3-3-3-2-2-2-2—3-2-|


chorus
|---------------------------------------------|
|---------------------------------------------|
|-----------5---------3--------3p2-3----------|
|-0------3--------------------------------3-2-|

|---------------------------------------------|
|---------------------------------------------|
|-----------5---------3-----------------------|
|-0-----3/5---------------------5-5-5-5-5-5---|


bridge

|--------------------------------------------------------------|
|--------------------------------------------------------------|
|-3-—2-----3—3—3--------3-—2------3—3—3--------------------3--2|
|---------------------------------------------0-3-2-0-2-0------|
after this, play verse riff


End song on an A.



Verse
Pre-chorus
Chorus
Verse
Pre-chorus
Chorus
Bridge
Verse
Chorus



This sonds about right but it sonds relly good so have fun with it!!!......
Suggest correction
comments
print report bad tab
3 comments total.
0 reply
bassist90 50 Oct 09, 2004 08:00 PM

sounds good to me!

0 reply
nathan mitchell 10 May 15, 2007 01:02 PM

this song sucks learn how to work a d;mn computer

0 reply
nathan mitchell 10 May 15, 2007 01:03 PM

i mean really this tab is wrong you retarded b;;ch

guest
You may want to rate the tab now too:
select rating
Wanna post a correction for this tab? Suggest correction