Oops, an error
Loading. Please wait.
We have Chord Pro version of 45.
It's the closest thing you can get to the original song and it has interactive parts. Check out the tab »
×
38,212 views 324 this week
1 commentread comment
1 2 3 4 5
x 49
add to favorites
×
Save as Personal and add changes to this tab that will be seen only by you. Learn more ›
×
You can save this tab as Personal to edit and correct it or add notes. All changes will be seen only by you. Learn more »
launch autoscroll
font size
0
reset
how to read this tab
guitar tuner
backing track
0:00
0:00
edit
Autoscroll
slow
fast
+/-
esc
set tempo
stop
Author
Difficulty
[Intro]

e|--------------------------------------|---------------------------------------------------|
B|--------------------------------------|-------------------------------------------3-------|
G|------0----2----0-------0----0----0---|------0-----2-----0----0-----0-----0-----0---0-----|
D|----2----0----0-------0----0----4-----|----2-----0-----0----0-----0-----0-----4-------4---|
A|--------------------3----3----3-------|-------------------------3-----3-----3-------------|
E|--0----2----3-------------------------|--0-----2-----3------------------------------------|

[Verse 1]

e|----------------------------------------------------------|-------------------------------------|
B|-----------------------------------------------------3----|-------------------------------------|
G|------0-----2-----0---0h2p0--0-------0------0------0---0--|------0-----2-----0----0------0-----0|
D|----2-----0-----0-----------4------0------0------4-------4|----2-----0-----0----0------0-----0--|
A|---------------------------------3------3------3----------|--------------------------3-----3----|
E|--0-----2-----3-------------------------------------------|--0-----2-----3----------------------|

e|---------------|                             e|---------------------------|
B|--------3------|                             B|------------------00-3-33-0|
G|------0---0----|      Play this 2x           G|------0-----0---0-00-0-00-0|
D|----4-------4--|      On second time play:   D|----0-----0-------00-4-44-0|
A|--3------------|                             A|--3-----3-----3------------|
E|---------------|                             E|---------------------------|

[Pre-Chorus]

e|--0--0-000-0000-2--2-222-222--0-0-00-0-00------0--------------|
B|--1--1-111-1111-1--1-111-111--0-0-00-0-00------0-------0------|
G|--2--2-222-2222-2--2-222-222--0-0-00-0-00------0-------0------|
D|--2--2-222-2222-2--2-222-222--2-2-22-2-22--2/5---5-5/2--------|
A|--0--0-000-0000-0--0-000-000--2-2-22-2-22---------------------|
E|------------------------------0-0-00-0-00---------------------|


e|--000000-000000-222222-222222------------------------------|
B|--111111-111111-111111-111111--0-0000-0000-0000000---------|
G|--222222-222222-222222-222222--0-0000-0000-0000000---------|
D|--222222-222222-222222-222222--0-0000-0000-0000000---------|
A|--000000-000000-000000-000000--2-2222-2222-2222222---------|
E|-------------------------------3-3333-3333-2222222--3--2---|

[Chorus]

e|----------------------------------------------------|-----------------------------------------|
B|--0-0000-000--3-3333-333-0-0000-000-0-00000---------|--0-0000-000--3-3333-333-0-0000-000-0----|
G|--0-0000-000--2-2222-222-0-0000-000-0-00000---------|--0-0000-000--2-2222-222-0-0000-000-2----|
D|--2-2222-222--0-0000-000-2-2222-222-2-22222---------|--2-2222-222--0-0000-000-2-2222-222-2----|
A|--2-2222-222--0-0000-000-3-3333-333-3-33333---------|--2-2222-222--0-0000-000-3-3333-333-0----|
E|--0-0000-000---------------------------------3--2---|--0-0000-000-----------------------------|

[Pre-Verse]

(only play once)

e|---------------------------------------------------|
B|---------------------------------------000-3--333--|
G|------0-----2-----0----0-----0-----0---000-0--000--|
D|----2-----0-----0----0-----0-----0-----000-4--444--|
A|-------------------------3-----3-----3-------------|
E|--0-----2-----3------------------------------------|

[Verse 2]

e|----------------------------------------------------------|-------------------------------------|
B|-----------------------------------------------------3----|-------------------------------------|
G|------0-----2-----0---0h2p0--0-------0------0------0---0--|------0-----2-----0----0------0-----0|
D|----2-----0-----0-----------4------0------0------4-------4|----2-----0-----0----0------0-----0--|
A|---------------------------------3------3------3----------|--------------------------3-----3----|
E|--0-----2-----3-------------------------------------------|--0-----2-----3----------------------|

e|---------------|                             e|---------------------------00-|
B|--------3------|                             B|------------00-3-3333-3333-00-|
G|------0---0----|      Play this 2x           G|------0---0-00-0-0000-0000-00-|
D|----4-------4--|      On second time play:   D|----0-------00-4-4444-4444-00-|
A|--3------------|                             A|--3-----3---------------------|
E|---------------|                             E|------------------------------|

[Pre-Chorus 2]

e|--0--0-000-0000-2--2-222-222--0-0-00-0-00------0--------------|
B|--1--1-111-1111-1--1-111-111--0-0-00-0-00------0-------0------|
G|--2--2-222-2222-2--2-222-222--0-0-00-0-00------0-------0------|
D|--2--2-222-2222-2--2-222-222--2-2-22-2-22--2/5---5-5/2--------|
A|--0--0-000-0000-0--0-000-000--2-2-22-2-22---------------------|
E|------------------------------0-0-00-0-00---------------------|


e|--000000-000000-222222-222222---------------------------|
B|--111111-111111-111111-111111--0-0000-0000-00000--------|
G|--222222-222222-222222-222222--0-0000-0000-00000--------|
D|--222222-222222-222222-222222--0-0000-0000-00000--------|
A|--000000-000000-000000-000000--2-2222-2222-22222--------|
E|-------------------------------3-3333-3333-22222-3--2---|

[Chorus 2]

e|--------------------------------------------------|---------------------------------------------|
B|--0-0000-000--3-3333-333-0-0000-000-0-00000-------|-0-0000-000--3-3333-333-0-0000-000-0-0000-000|
G|--0-0000-000--2-2222-222-0-0000-000-0-00000-------|-0-0000-000--2-2222-222-0-0000-000-2-2222-222|
D|--2-2222-222--0-0000-000-2-2222-222-2-22222-------|-2-2222-222--0-0000-000-2-2222-222-2-2222-222|
A|--2-2222-222--0-0000-000-3-3333-333-3-33333-------|-2-2222-222--0-0000-000-3-3333-333-0-0000-000|
E|--0-0000-000---------------------------------3--2-|-0-0000-000----------------------------------|

[Bridge]

e|-------------------------------------------------------------------------------------------------|
B|-------------------------------------------------------------------------------------------------|
G|-555--5-4--4444-444-555--5-4-4444-------555-5-4-4444-----------0-----2------5-555----0---2---555-|
D|-555--5-4--4444-444-555--5-4-4444-------555-5-4-4444---------2-----0------0-5-555---2---0----555-|
A|-333--3-2--2222-222-333--3-2-2222-------333-3-2-2222------------------------3-333------------333-|
E|-333--3-2--2222-222-333--3-2-2222--3--2-333-3-2-2222--3--2-0-----2-----3----3-333-0---2------333-|

[Chorus 3]

e|--------0-0000-000--0-0000-000-0-0000-000-0-0000-X-|--0-0000-000--0-0000-000-0-0000-000-0-0000----|
B|--------0-0000-000--3-3333-333-0-0000-000-0-0000-X-|--0-0000-000--3-3333-333-0-0000-000-0-0000----|
G|--------0-0000-000--2-2222-222-0-0000-000-0-0000-X-|--0-0000-000--2-2222-222-0-0000-000-2-2222----|
D|--------2-2222-222--0-0000-000-2-2222-222-2-2222-X-|--2-2222-222--0-0000-000-2-2222-222-2-2222----|
A|--------2-2222-222--0-0000-000-3-3333-333-3-3333-X-|--2-2222-222--0-0000-000-3-3333-333-0-0000----|
E|--3--2--0-0000-000-------------------------------X-|--0-0000-000-------------------------------3-2|

[Outro]

e|-----------------------------------------------------------------------|
B|-----------------------------------------------------------------------|
G|--------------------------7-7777--5-5555--7-7777--9-9999--11-11111111--|
D|-2--2222--4-4444--5-5555--7-7777--5-5555--7-7777--9-9999--11-11111111--|
A|-2--2222--4-4444--5-5555--5-5555--3-3333--5-5555--7-7777--9--9-9-9-9---|
E|-0--0000--2-2222--3-3333-----------------------------------------------|

e|--------------------------------------------------0-000000-------------|
B|--------------------------------------------------0-000000-------------|
G|--------------------------7-7777--5-5555--7-7777--0-000000-------------|
D|-2--2222--4-4444--5-5555--7-7777--5-5555--7-7777--2-222222-------------|
A|-2--2222--4-4444--5-5555--5-5555--3-3333--5-5555--2-222222-------------|
E|-0--0000--2-2222--3-3333--------------------------0-000000--3-2--------|

Play this 2x
On second time play:

e|--------------------------0--|
B|--------------------------0--|
G|--7-7777--5-5555--7-7777--0--|
D|--7-7777--5-5555--7-7777--2--|
A|--5-5555--3-3333--5-5555--2--|
E|--------------------------0--|



************************************

| h  Hammer-on
| p  Pull-off
| /  Slide up

************************************

            
            
Suggest correction
Creating personal tab
Creating personal tab
You can edit any tab online and save it as your Personal.

You can edit, replace or remove any tab part or add personal notes – all changes will be seen only by you.

Personal tabs can be accessed anytime from any device, even offline.
Learn more »
comments
print report bad tab
1 comment total.
+1 reply
scartissue3 210 Aug 19, 2015 08:20 PM

Very good tab. It sounds great, is easy to read and nice and condensed! 5 Stars!

guest
You may want to rate the tab now too:
select rating
Wanna post a correction for this tab? Suggest correction