Oops, an error
Loading. Please wait.

Adrenaline tab

version 2
version 2

Whole song

Interactive

1,320 views 3 this week
1 commentread comment
1 2 3 4 5
2 more votes to show rating
add to favorites
×
Save as Personal and add changes to this tab that will be seen only by you. Learn more ›
×
You can save this tab as Personal to edit and correct it or add notes. All changes will be seen only by you. Learn more »
launch autoscroll
font size
0
reset
how to read this tab
guitar tuner
edit
Autoscroll
slow
fast
+/-
esc
set tempo
stop
Song: Adrenaline 
Album: Amaryllis
Artist: Shinedown
Release Date: March 27, 2012

Intro:
Left Guitar
D#|---------------------------------------------------------------|
A#|---------------------------------------------------------------|
F#|---------------------------------------------------------------|
C#|-7-----7-----7-----7-7----------7-----7-----7-----7-7----------|
G#|-5-5-5-5-5-5-5-5-5-5-5--3-5-3-6-5-5-5-5-5-5-5-5-5-5-5--3-5-3-6-|
C#|------------------------3-5-3-6------------------------3-5-3-6-|
    ? ? ? ? ? ? ? ? ? ? ?          ? ? ? ? ? ? ? ? ? ? ?

Right Guitar
D#|---------------------------------------------------------------|
A#|---------------------------------------------------------------|
F#|---------------------------------------------------------------|
C#|-7-----7-----7-----7-7----------7-----7-----7-----7-7----------|
G#|-5-5-5-5-5-5-5-5-5-5-5----------5-5-5-5-5-5-5-5-5-5-5--3-5-3-6-|
C#|-------------------------------------------------------3-5-3-6-|
    ? ? ? ? ? ? ? ? ? ? ?          ? ? ? ? ? ? ? ? ? ? ?


Riff:
How to play with one guitar
D#|------------------------------------|
A#|------------------------------------|
F#|-------13-13-13-------13-13---------|
C#|------------------------------------|
G#|-------11-11-11-------11-11-3-5-3-6-|
C#|-0-0-0----------0-0-0-------3-5-3-6-|


How its ACTUALLY played

Center Guitar(Center, Right, and Left Guitar are played all at the same time and I just 
tabbed out the rows once, you can figure out how many times to repeat)
D#|--------------------------------|
A#|--------------------------------|
F#|-------13-13-13-------13-13-13--|
C#|--------------------------------|
G#|-------11-11-11-------11-11-11--|
C#|-0-0-0----------0-0-0-----------|

Right Guitar & Left Guitar
D#|------------------------------------------|
A#|------------------------------------------|
F#|------------------------------------------|
C#|-7-----7-----7-----7-----7-----7----------|
G#|-5-5-5-5-5-5-5-5-5-5-5-5-5-5-5-5--3-5-3-6-|
C#|----------------------------------3-5-3-6-|
    ? ? ? ? ? ? ? ? ? ? ? ? ? ? ? ?

Verse:
Center Guitar(Just play the center guitar part if you're playing with one guitar)
D#|----------------------------------------------------------------------------|
A#|----------------------------------------------------------------------------|
F#|------13-13-13------13-13-13----------------13-13-13------13-13-13----------|
C#|------------------------------7---7/8-------------------------------7---7/8-|
G#|------11-11-11------11-11-11--5---5/6-------11-11-11------11-11-11--5---5/6-|
C#|-0-00----------0-00-------------0------0-00----------0-00-------------0-----|
    ? ??          ? ??             ?      ? ??          ? ??             ?

Right Guitar & Left Guitar(Play along with center guitar)
D#|----------------------------------------------------------|
A#|----------------------------------------------------------|
F#|----------------------------------------------------------|
C#|----------------------------------------------------------|
G#|----------------------------------------------------------|
C#|-0-00-000--0-00-000--0-0-0-0--0-00-000--0-00-000--0-0-0-0-|
    ? ?? ???  ? ?? ???  ? ? ? ?  ? ?? ???  ? ?? ???  ? ? ? ?

Chorus:
Right Guitar & Left Guitar
D#|--------------------------------------------------------------------------------------|
A#|--------------------------------------------------------------------------------------|
F#|----------------------------------------------------12---12---12/14---12---12---12/14-|
C#|--------------------------------------------------------------------------------------|
G#|-888888888810101010000000000000003333333355555555---10---10---10/12---10---10---10/12-|
C#|-888888888810101010000000000000003333333355555555-0----0----0-------0----0----0-------|

D#|-------------------------------------------------------------------------------------------------------|
A#|-------------------------------------------------------------------------------------------------------|
F#|----------------------------------------------------12---12---12/14---12---12---12/14------------------|
C#|-------------------------------------------------------------------------------------------------------|
G#|-888888888810101010000000000000003333333355555555---10---10---10/12---10---10---10/12-3333333355555555-|
C#|-888888888810101010000000000000003333333355555555-0----0----0-------0----0----0-------3333333355555555-|


Center Guitar(Didn't tab out how many times to play each chord, but you can figure it 
out simply by listening to the song)
D#|-13-15-17-12-6-5-|
A#|-----------------|
F#|-10-12-14-9--3-2-|
C#|-----------------|
G#|-----------------|
C#|-----------------|

Repeat Riff
Repeat Verse
Repeat Chorus

Bridge:
Center Guitar
D#|--------------------------------------------------------------|
A#|--------------------------------------------------------------|
F#|--14~-12~-10~-7~-14~-12~-10~-7~-14~-12~-10~-7~-14~-12~-10~-7~-|
C#|--------------------------------------------------------------|
G#|--------------------------------------------------------------|
C#|--------------------------------------------------------------|


Right & Left Guitar
D#|--------------------------------------------------------------|
A#|--------------------------------------------------------------|
F#|--------------------------------------------------------------|
C#|---7---5---3--0---7---5---3--0---7---5---3--0---7---5---3--0--|
G#|---7---5---3--0---7---5---3--0---7---5---3--0---7---5---3--0--|
C#|---7---5---3--0---7---5---3--0---7---5---3--0---7---5---3--0--|

Pre-Solo Part:
Right & Left Guitar
D#|---------------------------------------------------------------------------------|
A#|---------------------------------------------------------------------------------|
F#|---------------------------------------------------------------------------------|
C#|---------------------------------------------------------------------77--77------|
G#|-----------------------------------------------------5-5-5-5-5-5-5-5-55--55--15\-|
C#|-0-0-0-0-0-0-0-0-0-0-0-0-0-0-0-0-12-0-12-0-12-0-12-0-----------------------------|
    ? ? ? ? ? ? ? ? ? ? ? ? ? ? ? ?  ? ?  ? ?  ? ?  ? ? ? ? ? ? ? ? ? ?
Solo:
Center Guitar
D#|-13-13-13-13-13-13-13-13-13-13-15-15-15-15-15-15-15-15-17-17-17-17-17-17-17-17-12-12-12-12-12-12-12-12-12-12-|
A#|-------------------------------------------------------------------------------------------------------------|
F#|-------------------------------------------------------------------------------------------------------------|
C#|-------------------------------------------------------------------------------------------------------------|
G#|-------------------------------------------------------------------------------------------------------------|
C#|-------------------------------------------------------------------------------------------------------------|

D#|-12h13p12--10h12p10--8h10p8--7h8p7---15-17-15-------15-13-------13-12-13----12-13-12-----------------------------|
A#|---------13--------12------10-----8-----------17-15-------15-13----------15----------13--------------------------|
F#|----------------------------------------------------------------------------------------14-13-10-12-10-----------|
C#|------------------------------------------------------------------------------------------------------121012-15\-|
G#|-----------------------------------------------------------------------------------------------------------------|
C#|-----------------------------------------------------------------------------------------------------------------|

D#|--------------------------------------|
A#|--------------------------------------|
F#|-12p11-12p11-12/14--17p16-17p16-17/19-|
C#|--------------------------------------|
G#|--------------------------------------|
C#|--------------------------------------|


Right Guitar & Left Guitar
D#|-------------------------------------------------------------------------------------|
A#|-------------------------------------------------------------------------------------|
F#|---------------------------------------------------12---12---12/14---12---12---12/14-|
C#|-------------------------------------------------------------------------------------|
G#|888888888810101010000000000000003333333355555555---10---10---10/12---10---10---10/12-|
C#|888888888810101010000000000000003333333355555555-0----0----0-------0----0----0-------|

Repeat Chorus
Repeat Riff

            
            
Suggest correction
Creating personal tab
Creating personal tab
You can edit any tab online and save it as your Personal.

You can edit, replace or remove any tab part or add personal notes – all changes will be seen only by you.

Personal tabs can be accessed anytime from any device, even offline.
Learn more »
Give kudos to tab author, rate the tab!
1 2 3 4 5
comments
print report bad tab
1 comment total.
0 reply
CrisisInMyPants 10 Oct 24, 2013 01:44 PM

NICE! Its good to see someone actually did a tab with the complete solo and in more detail.. I like the fact that you tabbed out ALL guitars instead of just tabbing how to play it with one.

guest
You may want to rate the tab now too:
select rating
Wanna post a correction for this tab? Suggest correction