Oops, an error
Loading. Please wait.

All I Ever Wanted tab

version 3
version 3

Whole song

731 views 1 this week
no commentswrite comment
1 2 3 4 5
2 more votes to show rating
add to favorites
×
Save as Personal and add changes to this tab that will be seen only by you. Learn more ›
×
You can save this tab as Personal to edit and correct it or add notes. All changes will be seen only by you. Learn more »
launch autoscroll
font size
0
reset
how to read this tab
guitar tuner
edit
Autoscroll
slow
fast
+/-
esc
set tempo
stop
All I Ever Wanted
Shinedown
Leave A Whisper (2003)

All I Ever Wanted:  written by Brent Smith, Jason Todd, and Brad Stewart

NOTE: I couldn't figure out the second guitar in the last chorus, so I left
it like all of the others.

GTR I - Drop D Tuning (e,B,G,D,A,D)
GTR II - Drop D Tuning (e,B,G,D,A,D)

Intro

  GTR I
e|-------------------------------------------------|
B|-------------------------------------------------|
G|-------------------------------------------------|
D|--------2-----3--2-----------2--------2--------2-|
A|-----0--------------0-----------3--------3-------|
D|--0--------0-----------3-----------3--------3----|
 |
 |GTR II (with slide)
e|-------------------------------------------------|
B|-------------------------------------------------|
G|----------------------------------------12/------|
D|-------------------------------------------------|
A|-------------------------------------------------|
D|-------------------------------------------------|

  GTR I
e|-------------------------------------------------|
B|-------------------------------------------------|
G|-------------------------------------------------|
D|--------2-----3--2-----------2--------2--------2-|
A|-----0--------------0-----------3--------3-------|
D|--0--------0-----------3-----------3--------3----|
 |
 |GTR II
e|-------------------------------------------------|
B|-------------------------------------------------|
G|-14~----------------------------------9------/10-|
D|-------------------------------------------------|
A|-------------------------------------------------|
D|-------------------------------------------------|

  GTR I
e|-------------------------------------------------|
B|-------------------------------------------------|
G|-------------------------------------------------|
D|--------2-----3--2-----------2--------2--------2-|
A|-----0--------------0-----------3--------3-------|
D|--0--------0-----------3-----------3--------3----|
 |
 |GTR II 
e|-------------------------------------------------|
B|-------------------------------------------------|
G|-\9--------------------5~----------------5/------|
D|-------------------------------------------------|
A|-------------------------------------------------|
D|-------------------------------------------------|

  GTR I
e|-------------------------------------------------|
B|-------------------------------------------------|
G|-------------------------------------------------|
D|--------2-----3--2-----------2--------2--------2-|
A|-----0--------------0-----------3--------3-------|
D|--0--------0-----------3-----------3--------3----|
 |
 |GTR II 
e|-------------------------------------------------|
B|-------------------------------------------------|
G|-\7--------------------------------------2~------|
D|-------------------------------------------------|
A|-------------------------------------------------|
D|-------------------------------------------------|

Verse

  GTR I
e|-------------------------------------------------|
B|-------------------------------------------------|
G|-------------------------------------------------|
D|--------2-----3--2-----------2--------2--------2-|
A|-----0--------------0-----------3--------3-------|
D|--0--------0-----------3-----------3--------3----|

  GTR I
e|-------------------------------------------------|
B|-------------------------------------------------|
G|-------------------------------------------------|
D|--------2-----3--2-----------2--------2--------2-|
A|-----0--------------0-----------3--------3-------|
D|--0--------0-----------3-----------3--------3----|

  GTR I
e|-------------------------------------------------|
B|-------------------------------------------------|
G|-------------------------------------------------|
D|--------2-----3--2-----------2--------2--------2-|
A|-----0--------------0-----------3--------3-------|
D|--0--------0-----------3-----------3--------3----|

  GTR I
e|-------------------------------------------------|
B|-------------------------------------------------|
G|-------------------------------------------------|
D|--------2-----3--2-----------2--------2--------2-|
A|-----0--------------0-----------3--------3-------|
D|--0--------0-----------3-----------3--------3----|

Pre Chorus

  GTR I
e|-------------------------------------------------|
B|-------------------------------------------------|
G|-------------------------------------------------|
D|--------2-----3--2-----------2--------2--------2-|
A|-----0--------------0-----------3--------3-------|
D|--0--------0-----------3-----------3--------3----|
 |
 |GTR II
e|-------------------------------------------------|
B|-------------------------------------------------|
G|--------7----10--------9-----------9-----------9-|
D|----------------------------10----------10-------|
A|-------------------------------10----------10----|
D|-------------------------------------------------|

  GTR I
e|-------------------------------------------------|
B|-------------------------------------------------|
G|-------------------------------------------------|
D|--------2-----3--2-----------2--------2--------2-|
A|-----0--------------0-----------3--------3-------|
D|--0--------0-----------3-----------3--------3----|
 |
 |GTR II
e|-------------------------------------------------|
B|-------------------------------------------------|
G|--------7----10-------12----------12-------------|
D|----------------------------12-10-------12-10----|
A|-------------------------------------------------|
D|-------------------------------------------------|

  GTR I
e|-------------------------------------------------|
B|-------------------------------------------------|
G|-------------------------------------------------|
D|--------2-----3--2-----------2--------2--------2-|
A|-----0--------------0-----------3--------3-------|
D|--0--------0-----------3-----------3--------3----|

  GTR I
e|-------------------------------------------------|
B|-------------------------------------------------|
G|-------------------------------------------------|
D|--------2-----3--2-----------2--------2--------2-|
A|-----0--------------0-----------3--------3-------|
D|--0--------0-----------3-----------3--------3----|

  GTR I
e|-------------------------------------------------|
B|-------------------------------------------------|
G|-------------------------------------------------|
D|--------2-----3--2-----------2--------2--------2-|
A|-----0--------------0-----------3--------3-------|
D|--0--------0-----------3-----------3--------3----|

  GTR I
e|-------------------------------------------------|
B|-------------------------------------------------|
G|-------------------------------------------------|
D|--------2-----3--2-----3--------------3--3--3--3-|
A|-----0--------------0--3-----3--3--3--3--3--3--3-|
D|--0--------0-----------3-----3--3--3--3--3--3--3-|
 |                             .  .  .
 |GTR II
e|-------------------------------------------------|
B|-------------------------------------------------|
G|-------------------------------------------------|
D|-----------------------3--------------3--3--3--3-|
A|-----------------------3-----3--3--3--3--3--3--3-|
D|-----------------------3-----3--3--3--3--3--3--3-|
                               .  .  .             

Chorus

  GTR I
e|-------------------------------------------------|
B|--3-----3-----3--3--3--3-----3--3-----3--3--3--3-|
G|--2-----2-----2--2--2--2-----2--2-----2--2--2--2-|
D|--0-----0-----0--0--0--0-----0--0-----0--0--0--0-|
A|--0-----0-----0--0--0--0-----0--0-----0--0--0--0-|
D|-------------------------------------------------|
 |
 |GTR II
e|-------------------------------------------------|
B|-------------------------------------------------|
G|--7-----7-----7--7--7--7-----7--7-----7--7--7--7-|
D|--x-----x-----x--x--x--x-----x--x-----x--x--x--x-|
A|--5-----5-----5--5--5--5-----5--5-----5--5--5--5-|
D|-------------------------------------------------|

  GTR I
e|-------------------------------------------------|
B|-------------------------------------------------|
G|--4-----4-----4--4--4--5-----5--5-----5--5--5--5-|
D|--4-----4-----4--4--4--5-----5--5-----5--5--5--5-|
A|--2-----2-----2--2--2--3-----3--3-----3--3--3--3-|
D|-------------------------------------------------|
 |
 |GTR II
e|-------------------------------------------------|
B|-------------------------------------------------|
G|--4-----4-----4--4--4--5-----5--5-----5--5--5--5-|
D|--x-----x-----x--x--x--x-----x--x-----x--x--x--x-|
A|--2-----2-----2--2--2--3-----3--3-----3--3--3--3-|
D|-------------------------------------------------|

  GTR I
e|-------------------------------------------------|
B|--3-----3-----3--3--3--3-----3--3-----3--3--3--3-|
G|--2-----2-----2--2--2--2-----2--2-----2--2--2--2-|
D|--0-----0-----0--0--0--0-----0--0-----0--0--0--0-|
A|--0-----0-----0--0--0--0-----0--0-----0--0--0--0-|
D|-------------------------------------------------|
 |
 |GTR II
e|-------------------------------------------------|
B|-------------------------------------------------|
G|-11----11----11-11-11-11----11-11----11-11/14-14-|
D|--x-----x-----x--x--x--x-----x--x-----x--x--x--x-|
A|--9-----9-----9--9--9--9-----9--9-----9--9/12-12-|
D|-------------------------------------------------|

  GTR I
e|-------------------------------------------------|
B|-------------------------------------------------|
G|--4-----4-----4----------------------------------|
D|--4-----4-----4--0--2--3-----3--3--3--3--2--3--2-|
A|--2-----2-----2--0--2--3-----3--3--3--3--2--3--2-|
D|-----------------0--2--3-----3--3--3--3--2--3--2-|
 |                 .  . 
 |GTR II
e|-------------------------------------------------|
B|-------------------------------------------------|
G|--7-----7-----7----------------------------------|
D|--x-----x-----x--0--2--3-----3--3--3--3--2--3--2-|
A|--5-----5-----5--0--2--3-----3--3--3--3--2--3--2-|
D|-----------------0--2--3-----3--3--3--3--2--3--2-|
                   .  . 

  GTR I
e|-------------------------------------------------|
B|--3-----3-----3--3--3--3-----3--3-----3--3--3--3-|
G|--2-----2-----2--2--2--2-----2--2-----2--2--2--2-|
D|--0-----0-----0--0--0--0-----0--0-----0--0--0--0-|
A|--0-----0-----0--0--0--0-----0--0-----0--0--0--0-|
D|-------------------------------------------------|
 |
 |GTR II
e|-------------------------------------------------|
B|-------------------------------------------------|
G|--7-----7-----7--7--7--7-----7--7-----7--7--7--7-|
D|--x-----x-----x--x--x--x-----x--x-----x--x--x--x-|
A|--5-----5-----5--5--5--5-----5--5-----5--5--5--5-|
D|-------------------------------------------------|

  GTR I
e|-------------------------------------------------|
B|-------------------------------------------------|
G|--4-----4-----4--4--4--5-----5--5-----5--5--5--5-|
D|--4-----4-----4--4--4--5-----5--5-----5--5--5--5-|
A|--2-----2-----2--2--2--3-----3--3-----3--3--3--3-|
D|-------------------------------------------------|
 |
 |GTR II
e|-------------------------------------------------|
B|-------------------------------------------------|
G|--4-----4-----4--4--4--5-----5--5-----5--5--5--5-|
D|--x-----x-----x--x--x--x-----x--x-----x--x--x--x-|
A|--2-----2-----2--2--2--3-----3--3-----3--3--3--3-|
D|-------------------------------------------------|

  GTR I
e|-------------------------------------------------|
B|--3-----3-----3--3--3--3-----3--3-----3--3--3--3-|
G|--2-----2-----2--2--2--2-----2--2-----2--2--2--2-|
D|--0-----0-----0--0--0--0-----0--0-----0--0--0--0-|
A|--0-----0-----0--0--0--0-----0--0-----0--0--0--0-|
D|-------------------------------------------------|
 |
 |GTR II
e|-------------------------------------------------|
B|-------------------------------------------------|
G|-11----11----11-11-11-11----11-11----11-11/14-14-|
D|--x-----x-----x--x--x--x-----x--x-----x--x--x--x-|
A|--9-----9-----9--9--9--9-----9--9-----9--9/12-12-|
D|-------------------------------------------------|

  GTR I
e|-------------------------------------------------|
B|-------------------------------------------------|
G|--4-----4-----4----------------------------------|
D|--4-----4-----4--0--2--3-----3--3--3--3--2--3--2-|
A|--2-----2-----2--0--2--3-----3--3--3--3--2--3--2-|
D|-----------------0--2--3-----3--3--3--3--2--3--2-|
 |                 .  . 
 |GTR II
e|-------------------------------------------------|
B|-------------------------------------------------|
G|--7-----7-----7----------------------------------|
D|--x-----x-----x--0--2--3-----3--3--3--3--2--3--2-|
A|--5-----5-----5--0--2--3-----3--3--3--3--2--3--2-|
D|-----------------0--2--3-----3--3--3--3--2--3--2-|
                   .  . 

Post Chorus

  GTR I,II
e|-------------------------------------------------|
B|-----------------------3-------------------------|
G|-----------------------2-------------------------|
D|--5-----------3--2-----0-------------------------|
A|--5-----3--2--3--2--0--0-------------------------|
D|--5-----3--2--3--2--0--0-------------------------|
          .  .        .

Pre Verse

  GTR I
e|-------------------------------------------------|
B|-------------------------------------------------|
G|-------------------------------------------------|
D|--------2-----3--2-----------2--------2--------2-|
A|-----0--------------0-----------3--------3-------|
D|--0--------0-----------3-----------3--------3----|

  GTR I
e|-------------------------------------------------|
B|-------------------------------------------------|
G|-------------------------------------------------|
D|--------2-----3--2-------------------------------|
A|-----0--------------0----------------------------|
D|--0--------0-----------3-------------------------|
 |
 |GTR II
e|-------------------------------------------------|
B|-------------------------------------------------|
G|----------------------(7)------------------------|
D|-------------------(7)---------------------------|
A|-------------------------------------------------|
D|-------------------------------------------------|

Verse

  GTR I
e|-------------------------------------------------|
B|-------------------------------------------------|
G|-------------------------------------------------|
D|--------2-----3--2-----------2--------2--------2-|
A|-----0--------------0-----------3--------3-------|
D|--0--------0-----------3-----------3--------3----|

  GTR I
e|-------------------------------------------------|
B|-------------------------------------------------|
G|-------------------------------------------------|
D|--------2-----3--2-----------2--------2--------2-|
A|-----0--------------0-----------3--------3-------|
D|--0--------0-----------3-----------3--------3----|

  GTR I
e|-------------------------------------------------|
B|-------------------------------------------------|
G|-------------------------------------------------|
D|--------2-----3--2-----------2--------2--------2-|
A|-----0--------------0-----------3--------3-------|
D|--0--------0-----------3-----------3--------3----|

  GTR I
e|-------------------------------------------------|
B|-------------------------------------------------|
G|-------------------------------------------------|
D|--------2-----3--2-----------2--------2--------2-|
A|-----0--------------0-----------3--------3-------|
D|--0--------0-----------3-----------3--------3----|

Pre Chorus 2

  GTR I
e|-------------------------------------------------|
B|-------------------------------------------------|
G|-------------------------------------------------|
D|--------2-----3--2-----------2--------2--------2-|
A|-----0--------------0-----------3--------3-------|
D|--0--------0-----------3-----------3--------3----|
 |
 |GTR II
e|-------------------------------------------------|
B|-------------------------------------------------|
G|--------7----10--------9-----------9-----------9-|
D|----------------------------10----------10-------|
A|-------------------------------10----------10----|
D|-------------------------------------------------|

  GTR I
e|-------------------------------------------------|
B|-------------------------------------------------|
G|-------------------------------------------------|
D|--------2-----3--2-----------2--------2--------2-|
A|-----0--------------0-----------3--------3-------|
D|--0--------0-----------3-----------3--------3----|
 |
 |GTR II
e|-------------------------------------------------|
B|-------------------------------------------------|
G|--------7----10-------12----------12-------------|
D|----------------------------12-10-------12-10----|
A|-------------------------------------------------|
D|-------------------------------------------------|

  GTR I
e|-------------------------------------------------|
B|-------------------------------------------------|
G|-------------------------------------------------|
D|--------2-----3--2-----------2--------2--------2-|
A|-----0--------------0-----------3--------3-------|
D|--0--------0-----------3-----------3--------3----|
 |
 |GTR II
e|-------------------------------------------------|
B|-------------------------------------------------|
G|--------7----10--------9-----------9-----------9-|
D|----------------------------10----------10-------|
A|-------------------------------10----------10----|
D|-------------------------------------------------|

  GTR I
e|-------------------------------------------------|
B|-------------------------------------------------|
G|-------------------------------------------------|
D|--------2-----3--2-----3--------------3--3--3--3-|
A|-----0--------------0--3-----3--3--3--3--3--3--3-|
D|--0--------0-----------3-----3--3--3--3--3--3--3-|
 |                             .  .  .
 |GTR II
e|-------------------------------------------------|
B|-------------------------------------------------|
G|--------7----10-------12----------12-------------|
D|----------------------------12-10-----3--3--3--3-|
A|--------------------------------------3--3--3--3-|
D|--------------------------------------3--3--3--3-|

Chorus

  GTR I
e|-------------------------------------------------|
B|--3-----3-----3--3--3--3-----3--3-----3--3--3--3-|
G|--2-----2-----2--2--2--2-----2--2-----2--2--2--2-|
D|--0-----0-----0--0--0--0-----0--0-----0--0--0--0-|
A|--0-----0-----0--0--0--0-----0--0-----0--0--0--0-|
D|-------------------------------------------------|
 |
 |GTR II
e|-------------------------------------------------|
B|-------------------------------------------------|
G|--7-----7-----7--7--7--7-----7--7-----7--7--7--7-|
D|--x-----x-----x--x--x--x-----x--x-----x--x--x--x-|
A|--5-----5-----5--5--5--5-----5--5-----5--5--5--5-|
D|-------------------------------------------------|

  GTR I
e|-------------------------------------------------|
B|-------------------------------------------------|
G|--4-----4-----4--4--4--5-----5--5-----5--5--5--5-|
D|--4-----4-----4--4--4--5-----5--5-----5--5--5--5-|
A|--2-----2-----2--2--2--3-----3--3-----3--3--3--3-|
D|-------------------------------------------------|
 |
 |GTR II
e|-------------------------------------------------|
B|-------------------------------------------------|
G|--4-----4-----4--4--4--5-----5--5-----5--5--5--5-|
D|--x-----x-----x--x--x--x-----x--x-----x--x--x--x-|
A|--2-----2-----2--2--2--3-----3--3-----3--3--3--3-|
D|-------------------------------------------------|

  GTR I
e|-------------------------------------------------|
B|--3-----3-----3--3--3--3-----3--3-----3--3--3--3-|
G|--2-----2-----2--2--2--2-----2--2-----2--2--2--2-|
D|--0-----0-----0--0--0--0-----0--0-----0--0--0--0-|
A|--0-----0-----0--0--0--0-----0--0-----0--0--0--0-|
D|-------------------------------------------------|
 |
 |GTR II
e|-------------------------------------------------|
B|-------------------------------------------------|
G|-11----11----11-11-11-11----11-11----11-11/14-14-|
D|--x-----x-----x--x--x--x-----x--x-----x--x--x--x-|
A|--9-----9-----9--9--9--9-----9--9-----9--9/12-12-|
D|-------------------------------------------------|

  GTR I
e|-------------------------------------------------|
B|-------------------------------------------------|
G|--4-----4-----4----------------------------------|
D|--4-----4-----4--0--2--3-----3--3--3--3--2--3--2-|
A|--2-----2-----2--0--2--3-----3--3--3--3--2--3--2-|
D|-----------------0--2--3-----3--3--3--3--2--3--2-|
 |                 .  . 
 |GTR II
e|-------------------------------------------------|
B|-------------------------------------------------|
G|--7-----7-----7----------------------------------|
D|--x-----x-----x--0--2--3-----3--3--3--3--2--3--2-|
A|--5-----5-----5--0--2--3-----3--3--3--3--2--3--2-|
D|-----------------0--2--3-----3--3--3--3--2--3--2-|
                   .  . 

  GTR I
e|-------------------------------------------------|
B|--3-----3-----3--3--3--3-----3--3-----3--3--3--3-|
G|--2-----2-----2--2--2--2-----2--2-----2--2--2--2-|
D|--0-----0-----0--0--0--0-----0--0-----0--0--0--0-|
A|--0-----0-----0--0--0--0-----0--0-----0--0--0--0-|
D|-------------------------------------------------|
 |
 |GTR II
e|-------------------------------------------------|
B|-------------------------------------------------|
G|--7-----7-----7--7--7--7-----7--7-----7--7--7--7-|
D|--x-----x-----x--x--x--x-----x--x-----x--x--x--x-|
A|--5-----5-----5--5--5--5-----5--5-----5--5--5--5-|
D|-------------------------------------------------|

  GTR I
e|-------------------------------------------------|
B|-------------------------------------------------|
G|--4-----4-----4--4--4--5-----5--5-----5--5--5--5-|
D|--4-----4-----4--4--4--5-----5--5-----5--5--5--5-|
A|--2-----2-----2--2--2--3-----3--3-----3--3--3--3-|
D|-------------------------------------------------|
 |
 |GTR II
e|-------------------------------------------------|
B|-------------------------------------------------|
G|--4-----4-----4--4--4--5-----5--5-----5--5--5--5-|
D|--x-----x-----x--x--x--x-----x--x-----x--x--x--x-|
A|--2-----2-----2--2--2--3-----3--3-----3--3--3--3-|
D|-------------------------------------------------|

  GTR I
e|-------------------------------------------------|
B|--3-----3-----3--3--3--3-----3--3-----3--3--3--3-|
G|--2-----2-----2--2--2--2-----2--2-----2--2--2--2-|
D|--0-----0-----0--0--0--0-----0--0-----0--0--0--0-|
A|--0-----0-----0--0--0--0-----0--0-----0--0--0--0-|
D|-------------------------------------------------|
 |
 |GTR II
e|-------------------------------------------------|
B|-------------------------------------------------|
G|-11----11----11-11-11-11----11-11----11-11/14-14-|
D|--x-----x-----x--x--x--x-----x--x-----x--x--x--x-|
A|--9-----9-----9--9--9--9-----9--9-----9--9/12-12-|
D|-------------------------------------------------|

  GTR I
e|-------------------------------------------------|
B|-------------------------------------------------|
G|--4-----4-----4----------------------------------|
D|--4-----4-----4--0--2--3-----3--3--3--3--2--3--2-|
A|--2-----2-----2--0--2--3-----3--3--3--3--2--3--2-|
D|-----------------0--2--3-----3--3--3--3--2--3--2-|
 |                 .  . 
 |GTR II
e|-------------------------------------------------|
B|-------------------------------------------------|
G|--7-----7-----7----------------------------------|
D|--x-----x-----x--0--2--3-----3--3--3--3--2--3--2-|
A|--5-----5-----5--0--2--3-----3--3--3--3--2--3--2-|
D|-----------------0--2--3-----3--3--3--3--2--3--2-|
                   .  . 

Bridge

  GTR I
e|-------------------------------------------------|
B|-----------------------3-------------------------|
G|-----------------------2-------------------------|
D|--5-----------3--2-----0-------------------------|
A|--5-----3--2--3--2--0--0-------------------------|
D|--5-----3--2--3--2--0--0-------------------------|
 |        .  .        .
 |GTR II                    |--------TRM---------| 
e|-------------------------------------------------|
B|-----------------------3-------------------------|
G|-----------------------2--7--7--7--7--7--7--7--7-|
D|--5-----------3--2-----0-------------------------|
A|--5-----3--2--3--2--0--0-------------------------|
D|--5-----3--2--3--2--0--0-------------------------|
          .  .        .

  GTR I
e|-------------------------------------------------|
B|-------------------------------------------------|
G|-------------------------------------------------|
D|--5--5--5--5--5--5--5--5--5--5--5--5--5--8--8--8-|
A|--5--5--5--5--5--5--5--5--5--5--5--5--5--8--8--8-|
D|--5--5--5--5--5--5--5--5--5--5--5--5--5--8--8--8-|
 |
 |  |--------TRM---------|  |--------TRM---------| 
e|-------------------------------------------------|
B|-------------------------------------------------|
G|-12-12-12-12-12-12-12-12-12-12-12-12-12-14-14-14-|
D|-------------------------------------------------|
A|-------------------------------------------------|
D|-------------------------------------------------|

  GTR I
e|-------------------------------------------------|
B|-------------------------------------------------|
G|-------------------------------------------------|
D|--3--3--3--3--3--3--3--3--3--5--3--2--3--2--0--3-|
A|--3--3--3--3--3--3--3--3--3--5--3--2--3--2--0--3-|
D|--3--3--3--3--3--3--3--3--3--5--3--2--3--2--0--3-|
 |
 |  |--------TRM---------|  |--------TRM---------| 
e|-------------------------------------------------|
B|-------------------------------------------------|
G|-15-15-15-17-17-17-17-17-17-17-17-17-17-17-17-17-|
D|-------------------------------------------------|
A|-------------------------------------------------|
D|-------------------------------------------------|

  GTR I
e|-------------------------------------------------|
B|-------------------------------------------------|
G|-------------------------------------------------|
D|--5--5--5--5--5--5--5--5--5--5--5--5--5--5--5--5-|
A|--5--5--5--5--5--5--5--5--5--5--5--5--5--5--5--5-|
D|--5--5--5--5--5--5--5--5--5--5--5--5--5--5--5--5-|
 |
 |  |--------TRM---------|  |--------TRM---------| 
e|-------------------------------------------------|
B|-15-15-18-15-15-15-18-15-15-18-15-15-18-15-15-18-|
G|-------------------------------------------------|
D|-------------------------------------------------|
A|-------------------------------------------------|
D|-------------------------------------------------|

  GTR I
e|-------------------------------------------------|
B|-------------------------------------------------|
G|-------------------------------------------------|
D|-10-10-10-10-10-10-10-10-10-12-12-12-12-12-12-12-|
A|--8--8--8--8--8--8--8--8--8-10-10-10-10-10-10-10-|
D|--8--8--8--8--8--8--8--8--8-10-10-10-10-10-10-10-|
 |
 |  |--------TRM---------|                         
e|-------------------------------------------------|
B|-18-18-18-18-18-18-18-18-17~------------18~------|
G|-------------------------------------------------|
D|-------------------------------------------------|
A|-------------------------------------------------|
D|-------------------------------------------------|

  GTR I
e|-------------------------------------------------|
B|-------------------------------------------------|
G|-------------------------------------------------|
D|--5--5--5--5--5--5--5--5--5--5--5--5--5--8--8--8-|
A|--5--5--5--5--5--5--5--5--5--5--5--5--5--8--8--8-|
D|--5--5--5--5--5--5--5--5--5--5--5--5--5--8--8--8-|
 |
 |GTR II
e|-------------------------------------------------|
B|-15~---------------------------------------------|
G|-------------------------------------------------|
D|-------------------------------------------------|
A|-------------------------------------------------|
D|-------------------------------------------------|

  GTR I
e|-------------------------------------------------|
B|-------------------------------------------------|
G|-------------------------------------------------|
D|--3--3--3--3--3--3--3--3--3--5--3--2--3--2--0--3-|
A|--3--3--3--3--3--3--3--3--3--5--3--2--3--2--0--3-|
D|--3--3--3--3--3--3--3--3--3--5--3--2--3--2--0--3-|
 |
 |GTR II
e|-------------------------------------------------|
B|-12~---------------------------------------------|
G|-------------------------------------------------|
D|-------------------------------------------------|
A|-------------------------------------------------|
D|-------------------------------------------------|

  GTR I
e|-------------------------------------------------|
B|-------------------------------------------------|
G|-------------------------------------------------|
D|--5--5--5--5--5--5--5--5--5--5--5--5--5--5--5--5-|
A|--5--5--5--5--5--5--5--5--5--5--5--5--5--5--5--5-|
D|--5--5--5--5--5--5--5--5--5--5--5--5--5--5--5--5-|
 |
 |GTR II
e|-------------------------------------------------|
B|-15~---------------------------------------------|
G|-------------------------------------------------|
D|-------------------------------------------------|
A|-------------------------------------------------|
D|-------------------------------------------------|

  GTR I
e|-------------------------------------------------|
B|-------------------------------------------------|
G|-------------------------------------------------|
D|-10-10-10-10-10-10-10-10-10-12-12-12-12-12-12-12-|
A|--8--8--8--8--8--8--8--8--8-10-10-10-10-10-10-10-|
D|--8--8--8--8--8--8--8--8--8-10-10-10-10-10-10-10-|
 |
 |GTR II
e|-------------------------------------------------|
B|-18~------------------------20~------------------|
G|-------------------------------------------------|
D|-------------------------------------------------|
A|-------------------------------------------------|
D|-------------------------------------------------|

Chorus 2

  GTR I
e|-------------------------------------------------|
B|--3-----3-----3--3--3--3-----3--3-----3--3--3--3-|
G|--2-----2-----2--2--2--2-----2--2-----2--2--2--2-|
D|--0-----0-----0--0--0--0-----0--0-----0--0--0--0-|
A|--0-----0-----0--0--0--0-----0--0-----0--0--0--0-|
D|-------------------------------------------------|
 |
 |GTR II
e|-------------------------------------------------|
B|-19~---------------------------------------------|
G|-------------------------------------------------|
D|-------------------------------------------------|
A|-------------------------------------------------|
D|-------------------------------------------------|

  GTR I
e|-------------------------------------------------|
B|-------------------------------------------------|
G|--4-----4-----4--4--4--5-----5--5-----5--5--5--5-|
D|--4-----4-----4--4--4--5-----5--5-----5--5--5--5-|
A|--2-----2-----2--2--2--3-----3--3-----3--3--3--3-|
D|-------------------------------------------------|
 |
 |GTR II
e|-------------------------------------------------|
B|-------------------------------------------------|
G|--4-----4-----4--4--4--5-----5--5-----5--5--5--5-|
D|--x-----x-----x--x--x--x-----x--x-----x--x--x--x-|
A|--2-----2-----2--2--2--3-----3--3-----3--3--3--3-|
D|-------------------------------------------------|

  GTR I
e|-------------------------------------------------|
B|--3-----3-----3--3--3--3-----3--3-----3--3--3--3-|
G|--2-----2-----2--2--2--2-----2--2-----2--2--2--2-|
D|--0-----0-----0--0--0--0-----0--0-----0--0--0--0-|
A|--0-----0-----0--0--0--0-----0--0-----0--0--0--0-|
D|-------------------------------------------------|
 |
 |GTR II
e|-------------------------------------------------|
B|-------------------------------------------------|
G|-11----11----11-11-11-11----11-11----11-11/14-14-|
D|--x-----x-----x--x--x--x-----x--x-----x--x--x--x-|
A|--9-----9-----9--9--9--9-----9--9-----9--9/12-12-|
D|-------------------------------------------------|

  GTR I
e|-------------------------------------------------|
B|-------------------------------------------------|
G|--4-----4-----4----------------------------------|
D|--4-----4-----4--0--2--3-----3--3--3--3--2--3--2-|
A|--2-----2-----2--0--2--3-----3--3--3--3--2--3--2-|
D|-----------------0--2--3-----3--3--3--3--2--3--2-|
 |                 .  . 
 |GTR II
e|-------------------------------------------------|
B|-------------------------------------------------|
G|--7-----7-----7----------------------------------|
D|--x-----x-----x--0--2--3-----3--3--3--3--2--3--2-|
A|--5-----5-----5--0--2--3-----3--3--3--3--2--3--2-|
D|-----------------0--2--3-----3--3--3--3--2--3--2-|
                   .  . 

  GTR I
e|-------------------------------------------------|
B|--3-----3-----3--3--3--3-----3--3-----3--3--3--3-|
G|--2-----2-----2--2--2--2-----2--2-----2--2--2--2-|
D|--0-----0-----0--0--0--0-----0--0-----0--0--0--0-|
A|--0-----0-----0--0--0--0-----0--0-----0--0--0--0-|
D|-------------------------------------------------|
 |
 |GTR II
e|-------------------------------------------------|
B|-------------------------------------------------|
G|--7-----7-----7--7--7--7-----7--7-----7--7--7--7-|
D|--x-----x-----x--x--x--x-----x--x-----x--x--x--x-|
A|--5-----5-----5--5--5--5-----5--5-----5--5--5--5-|
D|-------------------------------------------------|

  GTR I
e|-------------------------------------------------|
B|-------------------------------------------------|
G|--4-----4-----4--4--4--5-----5--5-----5--5--5--5-|
D|--4-----4-----4--4--4--5-----5--5-----5--5--5--5-|
A|--2-----2-----2--2--2--3-----3--3-----3--3--3--3-|
D|-------------------------------------------------|
 |
 |GTR II
e|-------------------------------------------------|
B|-------------------------------------------------|
G|--4-----4-----4--4--4--5-----5--5-----5--5--5--5-|
D|--x-----x-----x--x--x--x-----x--x-----x--x--x--x-|
A|--2-----2-----2--2--2--3-----3--3-----3--3--3--3-|
D|-------------------------------------------------|

  GTR I
e|-------------------------------------------------|
B|--3-----3-----3--3--3--3-----3--3-----3--3--3--3-|
G|--2-----2-----2--2--2--2-----2--2-----2--2--2--2-|
D|--0-----0-----0--0--0--0-----0--0-----0--0--0--0-|
A|--0-----0-----0--0--0--0-----0--0-----0--0--0--0-|
D|-------------------------------------------------|
 |
 |GTR II
e|-------------------------------------------------|
B|-------------------------------------------------|
G|-11----11----11-11-11-11----11-11----11-11/14-14-|
D|--x-----x-----x--x--x--x-----x--x-----x--x--x--x-|
A|--9-----9-----9--9--9--9-----9--9-----9--9/12-12-|
D|-------------------------------------------------|

  GTR I
e|-------------------------------------------------|
B|-------------------------------------------------|
G|--4-----4-----4----------------------------------|
D|--4-----4-----4--0--2--3-----3--3--3--3--2--3--2-|
A|--2-----2-----2--0--2--3-----3--3--3--3--2--3--2-|
D|-----------------0--2--3-----3--3--3--3--2--3--2-|
 |                 .  . 
 |GTR II
e|-------------------------------------------------|
B|-------------------------------------------------|
G|--7-----7-----7----------------------------------|
D|--x-----x-----x--0--2--3-----3--3--3--3--2--3--2-|
A|--5-----5-----5--0--2--3-----3--3--3--3--2--3--2-|
D|-----------------0--2--3-----3--3--3--3--2--3--2-|
                   .  . 

Outro

  GTR I
e|-------------------------------------------------|
B|-------------------------------------------------|
G|-------------------------------------------------|
D|--5-----------3--2-----5-----5--------3--2-------|
A|--5-----3--2--3--2--0--5-----5--3--2--3--2--0--0-|
D|--5-----3--2--3--2--0--5-----5--3--2--3--2--0--0-|
 |        .  .        .           .  .        .  .
 |
e|-------------------------------------------------|
B|-15-------------------------------18-15-18-15----|
G|-------------------------------------------------|
D|-------------------------------------------------|
A|-------------------------------------------------|
D|-------------------------------------------------|

  GTR I
e|-------------------------------------------------|
B|-----------------------3-------------------------|
G|-----------------------2-------------------------|
D|--5-----------3--2-----0-------------------------|
A|--5-----3--2--3--2--0--0-------------------------|
D|--5-----3--2--3--2--0--0-------------------------|
 |        .  .        .                           
 |
e|-------------------------------------------------|
B|----------18-15-18-15-10-------------------------|
G|-------------------------------------------------|
D|-------------------------------------------------|
A|-------------------------------------------------|
D|-------------------------------------------------|



| b  bend
| r  release bend
|trp triplet
|PH. pinch harmonic
|fbk feedback
| .  palm-mute
| /  slide up
| \  slide down
| h  hammer-on
| p  pull-off
| ~  vibrato
| +  harmonic
| x  Mute note
===============================================================================


            
            
Suggest correction
Creating personal tab
Creating personal tab
You can edit any tab online and save it as your Personal.

You can edit, replace or remove any tab part or add personal notes – all changes will be seen only by you.

Personal tabs can be accessed anytime from any device, even offline.
Learn more »
Give kudos to tab author, rate the tab!
1 2 3 4 5
comments
print report bad tab
guest
You may want to rate the tab now too:
select rating
Wanna post a correction for this tab? Suggest correction