Oops, an error
Loading. Please wait.

Amaryllis solo tab

version 1
version 1

Solo

Interactive

3,806 views 12 this week
2 commentsread comments
1 2 3 4 5
x 7
add to favorites
×
Save as Personal and add changes to this tab that will be seen only by you. Learn more ›
×
You can save this tab as Personal to edit and correct it or add notes. All changes will be seen only by you. Learn more »
launch autoscroll
font size
0
reset
how to read this tab
guitar tuner
edit
Autoscroll
slow
fast
+/-
esc
set tempo
stop
Might not be completely accurate, but you can base the solo off of this tab. Take a look 
at my cover of the song if you'd like to hear how this tab sounds;
http://www.youtube.com/watch?v=FvKCt0odW-o
| /  slide up
| \  slide down
| h  hammer-on
| p  pull-off
| b  bend

e|------------------------------9--------------------------------|
B|---------7---7h9--7----7—9b11---11b9-7--7---7--7-6-------------|
G|-----6/8---8---------8--------------------8----------6--4----4-|
D|-9---------------------------------------------------------6---|
A|---------------------------------------------------------------|
D|---------------------------------------------------------------|

e|-----------------------------9-11/14-14/16—16b18b16-14--|
B|----------7-7---9-7----7h9/11---------------------------|
G|----4h6/8--------8--------------------------------------|
D|-4h6----------------------------------------------------|
A|--------------------------------------------------------|
D|--------------------------------------------------------|

e|-14---13---9----7-------------------7-------------------|
B|-17b--16b--12b--10b--9-12--7----9-------9---7-----------|
G|----------------------------------------------8-10------|
D|--------------------------------------------------------|
A|--------------------------------------------------------|
D|--------------------------------------------------------|

            
            
Suggest correction
Creating personal tab
Creating personal tab
You can edit any tab online and save it as your Personal.

You can edit, replace or remove any tab part or add personal notes – all changes will be seen only by you.

Personal tabs can be accessed anytime from any device, even offline.
Learn more »
comments
print report bad tab
2 comments total.
0 reply
anxietyben 10 Mar 19, 2013 03:39 PM

Might not be completely accurate, but you can base the solo off of this tab. Take a look
at my cover of the song if you'd like to hear how this tab sounds;
http://www.youtube.com/watch?v=FvKCt0odW-o
| / slide up
| \ slide down
| h hammer-on
| p pull-off
| b bend op whole step to next note(for ex. 9b11= 9 bend to 11)

e|------------------------------9-------------------------------------|
B|---------7---7h9p7--7—---9b11---11b9---9--7-----11-10---------------|
G|-----6/8---8-------8--------------------8--------------11-9---6--9--|
D|-9------------------------------------------------------------------|
A|--------------------------------------------------------------------|
D|--------------------------------------------------------------------|

e|-----------------------------9-11/14-14/16—16b18b16-14--|
B|----------7-7---9-7----7h9/11---------------------------|
G|----4h6/8--------8--------------------------------------|
D|-4h6----------------------------------------------------|
A|--------------------------------------------------------|
D|--------------------------------------------------------|

e|--------------------------------------------------------|
B|-17b--16b--12b--10b--9-12--7--12---7---6----------------|
G|-------------------------------------------8-10---------|
D|--------------------------------------------------------|
A|--------------------------------------------------------|
D|--------------------------------------------------------|

0 reply
anxietyben 10 Mar 19, 2013 03:39 PM

Might not be completely accurate, but you can base the solo off of this tab. Take a look
at my cover of the song if you'd like to hear how this tab sounds;
http://www.youtube.com/watch?v=FvKCt0odW-o
| / slide up
| \ slide down
| h hammer-on
| p pull-off
| b bend op whole step to next note(for ex. 9b11= 9 bend to 11)

e|------------------------------9-------------------------------------|
B|---------7---7h9p7--7—---9b11---11b9---9--7-----11-10---------------|
G|-----6/8---8-------8--------------------8--------------11-9---6--9--|
D|-9------------------------------------------------------------------|
A|--------------------------------------------------------------------|
D|--------------------------------------------------------------------|

e|-----------------------------9-11/14-14/16—16b18b16-14--|
B|----------7-7---9-7----7h9/11---------------------------|
G|----4h6/8--------8--------------------------------------|
D|-4h6----------------------------------------------------|
A|--------------------------------------------------------|
D|--------------------------------------------------------|

e|--------------------------------------------------------|
B|-17b--16b--12b--10b--9-12--7--12---7---6----------------|
G|-------------------------------------------8-10---------|
D|--------------------------------------------------------|
A|--------------------------------------------------------|
D|--------------------------------------------------------|

guest
You may want to rate the tab now too:
select rating
Wanna post a correction for this tab? Suggest correction