Oops, an error
Loading. Please wait.

Better Version bass

1,363 views 1 this week
1 commentread comment
1 2 3 4 5
x 4
add to favorites
×
Save as Personal and add changes to this tab that will be seen only by you. Learn more ›
×
You can save this tab as Personal to edit and correct it or add notes. All changes will be seen only by you. Learn more »
launch autoscroll
font size
0
reset
guitar tuner
edit
Autoscroll
slow
fast
+/-
esc
set tempo
stop
Song: Better version (bass)
Submitted by: LNKNPRK15
Standard Tuning

Shinedown rox!! Some parts of this song I'm not so sure of ,but it sounds good while 
with the song. This song Rox!

No bass till 0:11
Intro
0:11
G--------------------|
D----4-2-00---4-2-44-|
A—2---------2--------|
E--------------------|x4

Verse
0:31
G-------------------|
D-------------------|
A-22—555—22---------|
E-----------333-----|x4

PreChorus
0:53
G------------------|
D------------------|
A-2-2-1-0-2-2-1-0--|    I didn't quite get the prechorus to be
E------------------|x2  what I wanted so any correction would help.

Chorus
1:04
G--------------------------------------------|
D---------------------9p7-7-7-9--------------|
A-2-999---10-9-5—2-99----9-9----2-999-10-9-5-|
E--------------------------------------------|

Verse2
1:26
G-------------------|
D-------------------|
A-22—555—22---------|
E-----------333-----|x4

PreChorus
1:47
G------------------|
D------------------|
A-2-2-1-0-2-2-1-0--|
E------------------|x2

Chorus
1:58
G--------------------------------------------|
D---------------------9p7-7-7-9--------------|
A-2-999---10-9-5—2-99----9-9----2-999-10-9-5-|
E--------------------------------------------|

Bridge
2:20
G-------------------|
D-------------------|
A-2-2/4-4-2-2-7/4-2-|
E-------------------|x4

There's no bass from 2:41-2:52

Chorus
2:53
G--------------------------------------------|
D---------------------9p7-7-7-9--------------|
A-2-999---10-9-5—2-99----9-9----2-999-10-9-5-|
E--------------------------------------------|x2

SHINEDOWN ROCKS oh,yeah by the way thisis my first tab!

            
            
Suggest correction
Creating personal tab
Creating personal tab
You can edit any tab online and save it as your Personal.

You can edit, replace or remove any tab part or add personal notes – all changes will be seen only by you.

Personal tabs can be accessed anytime from any device, even offline.
Learn more »
comments
print report bad tab
1 comment total.
0 reply
phasesevenfold 213 Apr 16, 2011 09:27 PM

Pre-chorus:

A|-----------------------------------|
D|-4----7----0----4---7-----0---0--2-|

The song is in drop D, so this is on the low D string
And the verse is actually:

A|-2-2-2--5-5-5---------------|
D|---------------2-2-2--5-5-5-|

Still good work tho, great start at the tab!

guest
Wanna post a correction for this tab? Suggest correction