Oops, an error
Loading. Please wait.

Burning Bright Tab

version 2
version 2

Whole song

Interactive

3,231 views 1 this week
2 commentsread comments
1 2 3 4 5
2 more votes to show rating
add to favorites
launch autoscroll
font size
0
reset
how to read this tab
guitar tuner
Autoscroll
slow
fast
+/-
esc
set tempo
stop
Shinedown
Leave a whisper
"Burning bright"

Ok, the first version of this song's tab
is good, except it doesn't show the
guitar lick during the intro and verses...

This is what to play during them:
e---------------------------|
b---h--p--------h--p--------|
g-10-11-10----10-11-10--7-4-|
d---------------------------|
a---------------------------|
d---------------------------|

That lick is played over this:
e---------------------------|
b---------------------------|
g-11-11^--9-9-xx-7----------|
d-11-11^--9-9-xx-7----------|
a-9--9----7-7-xx-5-3/5--3/5-|
d-9--9----7-7-xx-5-3/5--3/5-|


There is also another lick if ya know
it, please comment and tell, cuz i need
to know.. cuz this song is off the hook.

^ bend
x palm mute
h hammer on
p pull off

Thnx.  ~*cinnimini*AR*~
Suggest correction
Give kudos to tab author, rate the tab!
1 2 3 4 5
comments
print report bad tab
2 comments total.
0 reply
IamJonsCranium 130 Jun 02, 2005 08:00 PM

im doing this by memory, so i hope it is right. from the second version on the cd. this may also be a little improvised, thats why im not tabbing my own, but sounds cool. not sure if the lick on the A string is on the right fret, so just move it till is sounds good.
e|--------------------------------------------|--------------------
B|--------------------------------------------|----------10--------
G|--11b1211-9------------------11b1211-9/11---|-11b1211-9---------
D|-----------12----------------------------12-|------------12-----
A|---------------9h11h12p11p9-----------------|--------------------
D|-0-----------0--------------0---------------|-----------------------
^-----------repeat here^ then the last one

his is probably more simple, but that is the way i play it. after all, why bother playing it exacly like they do, that takes the fun out of it.

0 reply
IamJonsCranium 130 Jun 02, 2005 08:00 PM

^on the first one, he might slide to the 9 from a 7.

guest
Wanna post a correction for this tab? Suggest correction