Oops, an error
Loading. Please wait.

Crow And The Butterfly intro tab

version 1
version 1

Intro

Whole song

Interactive

16,990 views 9 this week
4 commentsread comments
1 2 3 4 5
x 6
add to favorites
×
Save as Personal and add changes to this tab that will be seen only by you. Learn more ›
×
You can save this tab as Personal to edit and correct it or add notes. All changes will be seen only by you. Learn more »
launch autoscroll
font size
0
reset
how to read this tab
guitar tuner
edit
Autoscroll
slow
fast
+/-
esc
set tempo
stop

e-------------------|    2x's
b-------------------|
g-------------6-----|
d-------7---------7-|
a-0-----------------|
e-------------------|

e------------------| 2x"s
b-------1----------|
g----2-----2-------|
d-3----------------|
a------------------|
e------------------|


e------------------|
b------------------|
g-------0----------|  2x's
d----2-----2-------|
a-3----------------|
e------------------|

e------------------|
b------------------|
g--------0---------|
d-----2-----2------|  2x's
a-1----------------|
e------------------|

            
            
Suggest correction
Creating personal tab
Creating personal tab
You can edit any tab online and save it as your Personal.

You can edit, replace or remove any tab part or add personal notes – all changes will be seen only by you.

Personal tabs can be accessed anytime from any device, even offline.
Learn more »
comments
print report bad tab
4 comments total. Showing first comments.
0 reply
Lovemonk69 83 Aug 05, 2008 01:06 PM

Sounds good to me!

0 reply
alterbridge1988 143 Feb 21, 2009 07:47 AM

Sounds very good, the only thing I would change is the last part. Insted of the second fret, I'd play it on the third, sounds closer to me. Other than that, perfect!

0 reply
mastrdisastr495 10 Aug 01, 2009 05:25 AM

sounds pretty good. a tip- instead of playing e--------------
B--------------
G---------6----
D------7-----7-
A-0------------
at the beginning, try
e--------------------
B------------2-------
G--------2--------2--
D--------------------
A--------------------

Beacuse then it's easier to get to the next strings. Strumming is a little tougher, though. Otherwise, nice tab.

guest
Wanna post a correction for this tab? Suggest correction