Oops, an error
Loading. Please wait.

Devour tab

version 1
version 1

Interactive

38,244 views 3 this week
5 commentsread comments
1 2 3 4 5
x 7
add to favorites
×
Save as Personal and add changes to this tab that will be seen only by you. Learn more ›
×
You can save this tab as Personal to edit and correct it or add notes. All changes will be seen only by you. Learn more »
launch autoscroll
font size
0
reset
how to read this tab
guitar tuner
backing track
0:00
0:00
edit
Autoscroll
slow
fast
+/-
esc
set tempo
stop
TUNING : DADGBE

I got most of the song i could not figure out the first beginning but the rest is 
feel free to make changes peace.......


Intro High part

|-----------------------|
|-----------------------|
|--5h7--7-7-7-7-7-7-7-8-|
|-----------------------|
|-----------------------|
|-----------------------|

Heavy Riff verse

|-------------------|
|-------------------|
|-------------------|
|--5-5-5-5-5-5-5h-3-|
|--5-5-5-5-5-5-5h-3-|
|--5-5-5-5-5-5-5h-3-|

High Part Leading into the chorus by the way these chords are octaves

|-----------------------------------|
|-----------------------------------|
|--5-5-5-7-7-7-8-8-8----10-10-10-10-|
|-----------------------------------|
|--3-3-3-5-5-5-6-6-6----8--8--8--8--|
|-----------------------------------|

Chorus

|----------|
|----------|
|--8-10-5--|
|--8-8--5--|      After this the high part in the chorus is the octaves from up above...
|--6-8--3--|
|----8-----|

Bridge

|------|
|------|
|------|
|--5h-8      using these chords just listen to the strum i don't feel like tabbing all that....
|--5h-8
|--5h-8

            
            
Suggest correction
Creating personal tab
Creating personal tab
You can edit any tab online and save it as your Personal.

You can edit, replace or remove any tab part or add personal notes – all changes will be seen only by you.

Personal tabs can be accessed anytime from any device, even offline.
Learn more »
comments
print report bad tab
5 comments total. Showing first comments.
+1 reply
Asweepai 81 Jun 19, 2008 09:17 AM

Heres that high part in the background for some parts

e)--8-8---10-10---11-11---13-13---15---18
b)---------------------------------------

+1 reply
clemm 122 Jun 19, 2008 03:26 PM

You'll know where these parts are when you play this bit, didn't see it in your tab.

|-----------------------|
|-----------------------|
|-777888777101010778----|
|-----------------------|
|-5556665558 8 8-556----|
|-----------------------|

It is played throughout the songs in different parts usually in verse

0 reply
garret8 92 Jun 21, 2008 06:28 AM

this song is in drop c

guest
You may want to rate the tab now too:
select rating
Wanna post a correction for this tab? Suggest correction