Oops, an error
Loading. Please wait.

Diamond Eyes bass

version 1
version 1

Whole song

Interactive

16,937 views 18 this week
4 commentsread comments
1 2 3 4 5
x 4
add to favorites
×
Save as Personal and add changes to this tab that will be seen only by you. Learn more ›
×
You can save this tab as Personal to edit and correct it or add notes. All changes will be seen only by you. Learn more »
launch autoscroll
font size
0
reset
guitar tuner
backing track
0:00
0:00
edit
Autoscroll
slow
fast
+/-
esc
set tempo
stop
Hey, please people of the world, do not hate me. I'm new at this and This is my 
first tab. This song is one of the best i Have heard in such a long ass time. 
Alright here we go! PLease dont hate if it is incorrect send me your thoughts and 
suggestions on what I should do and I'll get on it Right Away:



-------------------------------------------------------------------------------
			     Diamond Eyes - Shinedown
-------------------------------------------------------------------------------

Tabbed By : John M.A.C
e-mail: jalbacerritos@yahoo.com

Tuning:D

Intro.............

(After the last "Boom-Lay")
G|---|----------------|\
D|---|----------------| \
A|---|----5-5-----3h5-| / 3x
D|12\|-00-----3-0-----|/

G|--------------------|
D|--------------------|
A|--------------------|
D|33333333/6655-3h5-0-|

G|----------------|\
D|----------------| \
A|----5-5-----3h5-| / 3x
D|-00-----3-0-----|/

G|--------------------|
D|--------------------|
A|--------------------|
D|33333333/6655-3h5-0-|

G|----------------|\
D|----------------| \
A|----5-5-----3h5-| / 3x
D|-00-----3-0-----|/

                       "(Boom-Lay Boom-Lay Boom)"
G|--------------------|--------------------------------|
D|--------------------|--------------------------------|
A|--------------------|-53-3h5-3h5-3h5-3h5-3h5---------|
D|33333333/6655-3h5-0-|--------------------------------|


(One Push is All You Need...)
G|---------|------------------|-----------------------------------------|
D|---------|------------------|-----------------------------------------|
A|1111111--|------------------|3-3-3-3-3-3-3-5h3-3h5-3h5-3h5-3h5-3h5----|
D|--------3|33-0h3-0h3-0h3-0h3|-----------------------------------------|

(We Watch with wounded Eyes...)
G|---------|-------------------|--------|
D|---------|-------------------|--------|
A|1111111--|-------------------|--------|
D|--------3|33-0h3-0h3-0h3-0h3-|00000000|


(Out on the front line, don't worry I'll be fine...)
G|------------------------------------------------------------------------|
D|------------------------------------------------------------------------|
A|11111111-------------------------333-11111111---------33333333-44444444-|
D|---------33333333-22222222-00000-------------33333333------------------0|

[REST]


(Damn, damn it all down...)
G|----------------|\
D|----------------| \
A|----5-5-----3h5-| / 3x
D|-00-----3-0-----|/

(The things you love or the people you hurt...)
G|--------------------|
D|--------------------|
A|--------------------|
D|33333333/6655-3h5-0-|

(Hey, it's like deja vu...)
G|----------------|\
D|----------------| \
A|----5-5-----3h5-| / 3x
D|-00-----3-0-----|/

                       "(Boom-Lay Boom-Lay Boom)"
G|--------------------|--------------------------------|
D|--------------------|--------------------------------|
A|--------------------|-53-3h5-3h5-3h5-3h5-3h5---------|
D|33333333/6655-3h5-0-|--------------------------------|

(One Push is All You Need...)
G|---------|------------------|-----------------------------------------|
D|---------|------------------|-----------------------------------------|
A|1111111--|------------------|3-3-3-3-3-3-3-5h3-3h5-3h5-3h5-3h5-3h5----|
D|--------3|33-0h3-0h3-0h3-0h3|-----------------------------------------|

(We Watch with wounded Eyes...)
G|---------|-------------------|--------|
D|---------|-------------------|--------|
A|1111111--|-------------------|--------|
D|--------3|33-0h3-0h3-0h3-0h3-|00000000|

Out on the front line, don't worry I'll be fine...)
G|------------------------------------------------------------------------|\
D|------------------------------------------------------------------------| \
A|11111111-------------------------333-11111111---------3333333333333333--|  \
D|---------33333333-22222222-00000-------------33333333-------------------|   \
                                                                               \ THESE GO TOGETHER
                                                                               /
G|------------------------------------------------------------------------|   /
D|------------------------------------------------------------------------|  /
A|11111111-------------------------333-11111111---------33333333-44444444-| /
D|---------33333333-22222222-00000-------------33333333------------------0|/

REST

(Every Night of My Life...)
G|---------------------------------------------------------------------------
D|---------------------------------------------------------------------------
A|55555555-11111111---------33333333-55555555-11111111----------55555555-----
D|------------------3-3-3-3----------------------------33333333--------------

G|----------------|\
D|----------------| \    \
A|----5-5-----3h5-| / 3x  \
D|-00-----3-0-----|/       \
                            \
G|--------------------|      \
D|--------------------|       \
A|--------------------|        PLAY DURING GUITAR SOLO
D|33333333/6655-3h5-0-|       /
                             / 
G|----------------|\        /
D|----------------| \      / 
A|----5-5-----3h5-| / 2x  /
D|-00-----3-0-----|/     /

G|---------------------------|
D|---------------------------| 
A|----5-5-----3h5-55555555-1~| 
D|-00-----3-0----------------|

REST (SLOW MELODY)

Out on the front line, don't worry I'll be fine...)
G|------------------------------------------------------------------------|\
D|------------------------------------------------------------------------| \
A|11111111-------------------------333-11111111---------3333333333333333--| / x2 
D|---------33333333-22222222-00000-------------33333333-------------------|/   
                                                                               
                                                                               
G|-----------------------------------------------------------------------|   
D|-----------------------------------------------------------------------|  
A|11111111-------------------------333-11111111---------33333333-44444444| 
D|---------33333333-22222222-00000-------------33333333------------------|
 
ENDING
G|----------------|\
D|----------------| \
A|----5-5-----3h5-| / 8x
D|-00-----3-0-----|/




| /  slide up
| \  slide down
| h  hammer-on
| p  pull-off
| ~  vibrato
| +  harmonic
| x  Mute note
===============================================================================

            
            
Suggest correction
Creating personal tab
Creating personal tab
You can edit any tab online and save it as your Personal.

You can edit, replace or remove any tab part or add personal notes – all changes will be seen only by you.

Personal tabs can be accessed anytime from any device, even offline.
Learn more »
comments
print report bad tab
4 comments total. Showing first comments.
0 reply
Flynx 10 Jul 09, 2010 10:03 AM

OMG I LOVE THIS SONG!! Good tab! Thanks a lot! I don't think there are many mistakes! Maybe 1 or 2, but I couldn't see any!

0 reply
thestank140 10 Jul 21, 2010 12:55 AM

hey dude greta job on the tab man never thought of drop tune D love the song :) but you missed two most epic notes man, they are fuzzed so i assume you thought they were guitar but they are for sure bass, its after the first chourus while resting the last messure 4 beat two 8th notes i think 7-5 on the G-string im not sure about play around with it but i think thats your best bet i didnt try that out yet, but yeah i think the song is a little fuzzed the whole song too just listen carefully

0 reply
fvestring 10 Apr 05, 2011 08:27 PM

thestank--so right! That shit is NASTY! The way I play it is (not even gonna attempt the tab look)...

8th note on the 17th fret on the D string, then 17th fret A string, slide down, and into the verse. I play it in Drop D. Try that...

guest
Wanna post a correction for this tab? Suggest correction