Oops, an error
Loading. Please wait.
We have an official Enemies tab made by UG professional guitarists. Check out the tab »
×
23,920 views 24 this week
3 commentsread comments
1 2 3 4 5
x 6
add to favorites
×
Save as Personal and add changes to this tab that will be seen only by you. Learn more ›
×
You can save this tab as Personal to edit and correct it or add notes. All changes will be seen only by you. Learn more »
launch autoscroll
font size
0
reset
how to read this tab
guitar tuner
edit
Autoscroll
slow
fast
+/-
esc
set tempo
stop
Shinedown-Enemies
Amaryllis (2012)
Drop C Tuning (C, G, C, F, A, D)
Tabbed by Ryan Ryngaert

Intro (triplet) x4
D--------------------------------------------|
A--------------------------------------------|
F--------------------------------------------|
C--------------------------------------------|
G---5-8---5-7---5-8---5-7---5-8---5-7--8--7--|
C-0-----0-----0-----0-----0-----0------8--7--|
or
D--------------------------------------------|
A--------------------------------------------|
F--------------------------------------------|
C--------------------------------------------|
G--------------------------------------8--7--|
C-0-3-0-2-0-3-0-3-0-2-0-3-0-3-0-2-0-3--8--7--|

Intro Lead x2
D-------------------------------------------------------------------------|
A-------------------------------------------------------------------------|
F-14-14-14-14-14-14-14-14-14-14-14-14-14-14-14-14-14-14-15-15-15-17-17-17-|
C-------------------------------------------------------------------------|
G-12-12-12-12-12-12-12-12-12-12-12-12-12-12-12-12-12-12-13-13-13-15-15-15-|
C-------------------------------------------------------------------------|

Verse (Harmonics) x4
D--------------------------------------|
A--------------------------------------|
F--------------------------------------|
C------12-------10-------8-------------|
G--------------------------------8-8-7-|
C-0--0-----0--0-----0--0----0--0-8-8-7-|

Post-Verse x2
D-------------------------------------|
A-------------------------------------|
F-------------------------------------|
C----7--------7-----------------------|
G----5--------5--------5--------5-----|
C-0-----0-0-0----3-3-3----4-4-4---8-7-|

Pre-Chorus x1
D----------------------------------------------------|
A----------------------------------------------------|
F----------------------------------------------------|
C----------------------------------------------------|
G-5--5-5--5-5------5--5-5--5-5-----8-8-8-8---6-6-6-6-|
C-5--5-5--5-5------5--5-5--5-5-----8-8-8-8---6-6-6-6-|

Chorus x2
D--------------------------------------------------|
A--------------------------------------------------|
F--------------------------------------------------|
C--------------------------------------------------|
G--0--0--0--0--3--3--3--3--8--8--8--8--5--5--7--7--|
C--0--0--0--0--3--3--3--3--8--8--8--8--5--5--7--7--|

Post-Chorus (triplet) x2
D--------------------------------------------|
A--------------------------------------------|
F--------------------------------------------|
C--------------------------------------------|
G---5-8---5-7---5-8---5-7---5-8---5-7--8--7--|
C-0-----0-----0-----0-----0-----0------8--7--|

Verse (Harmonics) x4
D--------------------------------------|
A--------------------------------------|
F--------------------------------------|
C------12-------10-------8-------------|
G--------------------------------8-8-7-|
C-0--0-----0--0-----0--0----0--0-8-8-7-|

Post-Verse x2
D-------------------------------------|
A-------------------------------------|
F-------------------------------------|
C----7--------7-----------------------|
G----5--------5--------5--------5-----|
C-0-----0-0-0----3-3-3----4-4-4---8-7-|

Pre-Chorus x1
D----------------------------------------------------|
A----------------------------------------------------|
F----------------------------------------------------|
C----------------------------------------------------|
G-5--5-5--5-5------5--5-5--5-5-----8-8-8-8---6-6-6-6-|
C-5--5-5--5-5------5--5-5--5-5-----8-8-8-8---6-6-6-6-|

Chorus x2
D--------------------------------------------------|
A--------------------------------------------------|
F--------------------------------------------------|
C--------------------------------------------------|
G--0--0--0--0--3--3--3--3--8--8--8--8--5--5--7--7--|
C--0--0--0--0--3--3--3--3--8--8--8--8--5--5--7--7--|

Post-Chorus (triplet) x2
D--------------------------------------------|
A--------------------------------------------|
F--------------------------------------------|
C--------------------------------------------|
G---5-8---5-7---5-8---5-7---5-8---5-7--8--7--|
C-0-----0-----0-----0-----0-----0------8--7--|

Solo Rhythm x3
D----------------------------------------------------|
A----------------------------------------------------|
F----------------------------------------------------|
C-7-----7-7-7-7------7-7-7-7------7-7-7--7--7--7--7--|
G-5-----5-5-5-5------5-5-5-5------5-5-5--5--5--5--5--|
C----------------------------------------------------|

Solo Lead x12
D----------------------------------|
A----------------------------------|
F-------------------------14-------|
C-12-0-15-14-0-15-14-0-15----15-14-|
G----------------------------------|
C----------------------------------|

Pre-Chorus x1
D----------------------------------------------------|
A----------------------------------------------------|
F----------------------------------------------------|
C----------------------------------------------------|
G-5--5-5--5-5------5--5-5--5-5-----8-8-8-8---6-6-6-6-|
C-5--5-5--5-5------5--5-5--5-5-----8-8-8-8---6-6-6-6-|

Chorus x4 (3rd and 4th time, Solo Lead over Chorus)
D--------------------------------------------------|
A--------------------------------------------------|
F--------------------------------------------------|
C--------------------------------------------------|
G--0--0--0--0--3--3--3--3--8--8--8--8--5--5--7--7--|
C--0--0--0--0--3--3--3--3--8--8--8--8--5--5--7--7--|

Outro (triplet) x2
D--------------------------------------------|
A--------------------------------------------|
F--------------------------------------------|
C--------------------------------------------|
G---5-8---5-7---5-8---5-7---5-8---5-7--8--7--|
C-0-----0-----0-----0-----0-----0------8--7--|

3rd time
D-------------------------------------------------|
A-------------------------------------------------|
F-------------------------------------------------|
C-------------------------------------------------|
G-----8-----7-----8-----7-----8-----7-----8-----7-|
C-0-0---0-0---0-0---0-0---0-0---0-0---0-0---0-0---|

4th time
D-----------------------------|
A-----------------------------|
F-----------------------14----|
C-12-0-15-14-0-15-14-15----12-|
G-----------------------------|
C-----------------------------|

Es Todo! That's it!
It's a very easy song, quick to learn.
http://www.facebook.com/bulletproofofficial

            
            
Suggest correction
Creating personal tab
Creating personal tab
You can edit any tab online and save it as your Personal.

You can edit, replace or remove any tab part or add personal notes – all changes will be seen only by you.

Personal tabs can be accessed anytime from any device, even offline.
Learn more »
comments
print report bad tab
3 comments total.
0 reply
7YD-GUITAR 172 Mar 27, 2013 08:03 AM

Post verse
G|-----------3-----|
C| 0--3-6-5-----5-6|

Not the correct amount but the right notes.

0 reply
aVisitingSalmon 570 Jul 16, 2013 01:11 PM

In the guitar solo for Bully he uses an effects pedal to make a high screaming sound at one point. In the verse for Enemies there is also that extremely high pitched sound. It is not done through harmonics as described in all the tabs. It is an effects pedal.

0 reply
chad1978 10 Mar 25, 2015 04:31 AM

Whammy Pedal

guest
You may want to rate the tab now too:
select rating
Wanna post a correction for this tab? Suggest correction