Oops, an error
Loading. Please wait.
We have an official Enemies tab made by UG professional guitarists. Check out the tab »
×
7,376 views 24 this week
no commentswrite comment
1 2 3 4 5
x 8
add to favorites
×
Save as Personal and add changes to this tab that will be seen only by you. Learn more ›
×
You can save this tab as Personal to edit and correct it or add notes. All changes will be seen only by you. Learn more »
launch autoscroll
font size
0
reset
how to read this tab
guitar tuner
edit
Autoscroll
slow
fast
+/-
esc
set tempo
stop
Song: Enemies
Album: Amaryllis
Artist: Shinedown
Release Date: March 27, 2012

Guitar 1 = High Distortion with Micro Pog pedal at times
Guitar 2 = High Distortion

Main Riff pt. 1:
Guitar 1&2
D|-----------------------------------------------------|
A|-----------------------------------------------------|
F|-----------------------------------------------------|
C|-----------------------------------------------------|
G|-------------------------------------------------8-7-|
C|-0-12-15-0-12-14-0-12-15-0-12-14-0-12-15-0-12-14-8-7-|

D|------------------------------------------------------|
A|------------------------------------------------------|
F|------------------------------------------------------|
C|------------------------------------------------------|
G|-------------------------------------------------8-10-|
C|-0-12-15-0-12-14-0-12-15-0-12-14-0-12-15-0-12-14-8-10-|

Main Riff pt. 2:
Guitar 1(2x)
D|----------|
A|----------|
F|-14-15-17-|
C|----------|
G|-12-13-15-|
C|----------|

Guitar 2
D|-----------------------------------------------------|
A|-----------------------------------------------------|
F|-----------------------------------------------------|
C|-----------------------------------------------------|
G|-------------------------------------------------8-7-|
C|-0-12-15-0-12-14-0-12-15-0-12-14-0-12-15-0-12-14-8-7-|

D|------------------------------------------------------|
A|------------------------------------------------------|
F|------------------------------------------------------|
C|------------------------------------------------------|
G|-------------------------------------------------8-10-|
C|-0-12-15-0-12-14-0-12-15-0-12-14-0-12-15-0-12-14-8-10-|

Verse:

Guitar 1(4x)
D|-----------------------------------------|
A|-----------------------------------------|
F|-----------------------------------------|
C|-------12-------10-------8---------------|
G|-----------------------------------------|
C|-0-0-0----0-0-0----0-0-0---6-6-6-7-6-6-7-|
 pm-----  pm-----  pm----- pm-------------

Guitar 2(4x)
D|-----------------------------------------|
A|-----------------------------------------|
F|-----------------------------------------|
C|-----------------------------------------|
G|-----------------------------------------|
C|-0-0-0----0-0-0----0-0-0---6-6-6-7-6-6-7-|
 pm-----  pm-----  pm----- pm-------------

Prechorus: Timing lined up exactly for both guitars
Guitar 1(2x)
D|---------------------------------------|
A|---------------------------------------|
F|-19------------------------------------|
C|---------17------19--------------------|
G|---------------------------------------|
C|---------------------------------------|
                         
Guitar 2(2x)
D|---------------------------------------|
A|---------------------------------------|
F|---------------------------------------|
C|---------------------------------------|
G|-------5-------0-------3---------------|
C|-0-0-0---3-3-3---5-5-5---6-6-6-7-6-6-7-|
                         pm-------------
Guitar 1&2
D|-------------------------------------------------------------------------|
A|-------------------------------------------------------------------------|
F|-------------------------------------------------------------------------|
C|-------------------------------------------------------------------------|
G|-5-5-5-5-5-5-5---5-5-5-5-5-5-5---8-8-8-8-8-8-8---6-6-6-6-6-6-5-5-5-3-3-3-|
C|-5-5-5-5-5-5-5---5-5-5-5-5-5-5---8-8-8-8-8-8-8---6-6-6-6-6-6-5-5-5-3-3-3-|

Chorus:
Guitar 1&2(2x)
D|--------------------------------------------------|
A|--------------------------------------------------|
F|--------------------------------------------------|
C|--------------------------------------------------|
G|--0--0--0--0--3--3--3--3--8--8--8--8--5--5--7--7--|
C|--0--0--0--0--3--3--3--3--8--8--8--8--5--5--7--7--|

Repeat Riff


Repeat Verse


Repeat Pre-Chorus


Repeat Chorus


Repeat Riff

Solo:
Guitar 1(12x)
D|---------------------------------|
A|---------------------------------|
F|---------------------------------|
C|-0-12-15-0-15-14-0-15-17-0-19-17-|
G|---------------------------------|
C|---------------------------------|

Guitar 1(3x)
D|---------------------------------------|
A|---------------------------------------|
F|---------------------------------------|
C|-7--7-7-7-7--7-7-7-7--7-7-7-7--7--7--7-|
G|-5--5-5-5-5--5-5-5-5--5-5-5-5--5--5--5-|
C|---------------------------------------|

Prechorus:
Guitar 1(1x)
D|---------------------------------------------------|
A|---------------------------------------------------|
F|---------------------------------------------------|
C|---------------------------------------------------|
G|-5-5-5-5-5-5-5---5-5-5-5-5-5-5---8-8-8-8-8-8-8---6/|
C|-5-5-5-5-5-5-5---5-5-5-5-5-5-5---8-8-8-8-8-8-8---6/|

Big Chorus:
Guitar 1&2(2x)
D|--------------------------------------------------|
A|--------------------------------------------------|
F|--------------------------------------------------|
C|--------------------------------------------------|
G|--0--0--0--0--3--3--3--3--8--8--8--8--5--5--7--7--|
C|--0--0--0--0--3--3--3--3--8--8--8--8--5--5--7--7--|

Guitar 1(2x)
D|---------------------------------|
A|---------------------------------|
F|---------------------------------|
C|-0-12-15-0-15-14-0-15-17-0-19-17-|
G|---------------------------------|
C|---------------------------------|

Guitar 2(2x)
D|--------------------------------------------------|
A|--------------------------------------------------|
F|--------------------------------------------------|
C|--------------------------------------------------|
G|--0--0--0--0--3--3--3--3--8--8--8--8--5--5--7--7--|
C|--0--0--0--0--3--3--3--3--8--8--8--8--5--5--7--7--|

Repeat Riff

Outro:
Guitar 1&2
D|---------------------------------------------------------|
A|---------------------------------------------------------|
F|---------------------------------------------------------|
C|---------------------------------------------------------|
G|---------------------------------------------------------|
C|-0-0-15-0-0-14-0-0-15-0-0-14-0-0-15-0-0-14-0-0-15-0-0-14-|

Guitar 1
D|----------------------------|
A|----------------------------|
F|----------------------------|
C|-0-12-15-0-15-14-0-15-17-19/|
G|----------------------------|
C|----------------------------|

Guitar 2
D|--------------|
A|--------------|
F|--------------|
C|--------------|
G|--5--5--5--5--|
C|--------------|

            
            
Suggest correction
Creating personal tab
Creating personal tab
You can edit any tab online and save it as your Personal.

You can edit, replace or remove any tab part or add personal notes – all changes will be seen only by you.

Personal tabs can be accessed anytime from any device, even offline.
Learn more »
comments
print report bad tab
guest
You may want to rate the tab now too:
select rating
Wanna post a correction for this tab? Suggest correction