Oops, an error
Loading. Please wait.

Fly From The Inside bass

version 1
version 1

Whole song

Interactive

5,774 views 3 this week
3 commentsread comments
1 2 3 4 5
x 4
add to favorites
×
Save as Personal and add changes to this tab that will be seen only by you. Learn more ›
×
You can save this tab as Personal to edit and correct it or add notes. All changes will be seen only by you. Learn more »
launch autoscroll
font size
0
reset
guitar tuner
edit
Autoscroll
slow
fast
+/-
esc
set tempo
stop
Artist: Shinedown
Song: Fly from the inside
Tuning D A D G
___________________________________
Intro 1/Bridge:
G|-------------------------|
D|-------------------------|
A|-------------------------|
D|---8~---7~-----3~--------|

Intro Part 2: 
G|-----------------------------|
D|-----------------------------|
A|-----------------------------|
D|-0-8-7-3-3-5----0-8-7-3-x-3--|

Verse:
G|-------------------------|
D|-------------------------|
A|-------------------------|
D|-2---2~------3----3~-----|
	repeat lots of times

Pre Chorus:
G|-----------------------------------------------------------|
D|-----------------------------------------------------------|
A|-----------------------------------------------------------|
D|-5555555555--888888888----555555555---88888-10101010101010-|
 
Chorus:
(distortion)
G|--------------------------------------------------------|
D|--------------------------------------------------------|
A|--------------------------------------------------------|
D|-0000000000--8888888888--3333333333-101010101010101010--|

Breakdown:
G|-------------------------------|
D|---3---3------------3---3---3--|
A|-------------------------------|
D|-0---0---xxxx-----0---0---x----|

            
            
Suggest correction
Creating personal tab
Creating personal tab
You can edit any tab online and save it as your Personal.

You can edit, replace or remove any tab part or add personal notes – all changes will be seen only by you.

Personal tabs can be accessed anytime from any device, even offline.
Learn more »
comments
print report bad tab
3 comments total.
+1 reply
phasesevenfold 213 Aug 31, 2006 10:02 AM

Intro Part 2:
G|-----------------------------|
D|-----------------------------|
A|-----------------------------|
D|-0-8-7-3-3-5----0-8-7-3-x-3--|
I like it i jst have a small prob with int. 2 i play it like:

Intro Part 2:
G|------------------|
D|------------------|
A|------------------|
D|-0-0-8-7-6-3-4-5--|

0 reply
livinginmisery 80 Apr 16, 2007 09:31 AM

phasesevenfold, that probably sounds right, too (i havent tried it yet), but the other part on the tab is right. Great tab dude, 5 stars

0 reply
bt108 10 Jul 25, 2008 06:56 PM

needs to be drop d

guest
Wanna post a correction for this tab? Suggest correction