Oops, an error
Loading. Please wait.

Fly From The Inside Tab

version 1
version 1

Whole song

Interactive

67,053 views 51 this week
12 commentsread comments
1 2 3 4 5
x 42
add to favorites
launch autoscroll
font size
0
reset
how to read this tab
guitar tuner
×
Best way to learn
"Fly From The Inside"
Autoscroll
slow
fast
+/-
esc
set tempo
stop
Artist: Shinedown
Song:   Fly From the Inside
Album:  Leave A Whisper
Tabber: ultimate_crow

[Intro] x4
e|--------------------------------------------------------|
B|--------------------------------------------------------|
G|----11-11-11-/-12---12---12---12-/--14-----10-10-9-9----|
D|-----x--x--x-/--x----x----x----x-/---x------8--8-8-8-10-|
A|-----9--9--9-/-10---10---10---10-/--12------8--8-8-8--8-|
E|--------------------------------------------8--8-8-8--8-|

[Riff] 
(Distorted) x4
e|-------------------------------------|
B|-------------------------------------|
G|-------------------------------------|
D|-----0-0-8-7-3-0-3h5-0-0-8-7-3-0-3-3-|
A|-----0-0-8-7-3-0-3h5-0-0-8-7-3-0-3-3-|
E|-----0-0-8-7-3-0-3h5-0-0-8-7-3-0-3-3-|

[Verse]
(Clean) x3
(figure out the struming)
e|---------------------|
B|---------------------|
G|-4-4-4-4-4-5-5-5-5-5-|
D|-2-2-2-2-2-3-3-3-3-3-|
A|-2-2-2-2-2-3-3-3-3-3-|
E|-2-2-2-2-2-3-3-3-3-3-|

e|--------------------------------------------------|
B|--------------------------------------------------|
G|-4-4-4-4-4-5-5-5-5-5-7-7-7-7-7-10-10-10-10--------|
D|-2-2-2-2-2-3-3-3-3-3-5-5-5-5-5--8--8--8--8----<---|
A|-2-2-2-2-2-3-3-3-3-3-5-5-5-5-5--8--8--8--8--------|
E|D-2-2-2-2-2-3-3-3-3-3-5-5-5-5-5--8--8--8--8-------|

[Pre-Chorus]
(Distorted)
e|-----------------------------------------------------------|
B|-----------------------------------------------------------|
G|-----------------------------------------------------------|
D|---5-5-5-5-5-5-5-5-8-8-8-8-8-8-8-8-5-5-5-5-5-5-5-5-8-8-8-8-|
A|---5-5-5-5-5-5-5-5-8-8-8-8-8-8-8-8-5-5-5-5-5-5-5-5-8-8-8-8-|
E|---5-5-5-5-5-5-5-5-8-8-8-8-8-8-8-8-5-5-5-5-5-5-5-5-8-8-8-8-|

[Chorus] 
(Ditorted) x2
e|-----------------------------------------------------------------------------|
B|-----------------------10-10-9-9------5-5-5-5-5-5-5-5-5-5-5-5-5-5-5-5-5-5-5--|
G|-4--4--4-4/5--5-5-5/7--8--8--8-8-10---3-3-3-3-3-3-3-3-3-5-5-5-5-5-5-5-5-5-5--|
D|-0--0--0-0-0--0-0-0-0--8--8--8-8-8----3-3-3-3-3-3-3-3-3-3-3-3-3-3-3-3-3-3-3--|
A|-0--0--0-0-0--0-0-0-0--8--8--8-8-8----3-3-3-3-3-3-3-3-3----------------------|
E|-----------------------------------------------------------------------------|

[Riff]
(Distorted) x2
e|-------------------------------------|
B|-------------------------------------|
G|-------------------------------------|
D|-----0-0-8-7-3-0-3h5-0-0-8-7-3-0-3-3-|
A|-----0-0-8-7-3-0-3h5-0-0-8-7-3-0-3-3-|
E|-----0-0-8-7-3-0-3h5-0-0-8-7-3-0-3-3-|

[Verse] 
(Clean) x4
(figure out the strumming)
e|---------------------|
B|---------------------|
G|-4-4-4-4-4-5-5-5-5-5-|
D|-2-2-2-2-2-3-3-3-3-3-|
A|-2-2-2-2-2-3-3-3-3-3-|
E|D-2-2-2-2-2-3-3-3-3-3-|
                                                 
e|--------------------------------------------------|
B|--------------------------------------------------|
G|-4-4-4-4-4-5-5-5-5-5-7-7-7-7-7-10-10-10-10--------|
D|-2-2-2-2-2-3-3-3-3-3-5-5-5-5-5--8--8--8--8----<---|
A|-2-2-2-2-2-3-3-3-3-3-5-5-5-5-5--8--8--8--8--------|
E|D-2-2-2-2-2-3-3-3-3-3-5-5-5-5-5--8--8--8--8-------|

[Pre-Chorus]
(Distorted)
e|-----------------------------------------------------------|
B|-----------------------------------------------------------|
G|-----------------------------------------------------------|
D|---5-5-5-5-5-5-5-5-8-8-8-8-8-8-8-8-5-5-5-5-5-5-5-5-8-8-8-8-|
A|---5-5-5-5-5-5-5-5-8-8-8-8-8-8-8-8-5-5-5-5-5-5-5-5-8-8-8-8-|
E|---5-5-5-5-5-5-5-5-8-8-8-8-8-8-8-8-5-5-5-5-5-5-5-5-8-8-8-8-|

[Chorus]
(Ditorted) x2
e|-----------------------------------------------------------------------------|
B|-----------------------10-10-9-9------5-5-5-5-5-5-5-5-5-5-5-5-5-5-5-5-5-5-5--|
G|-4--4--4-4/5--5-5-5/7--8--8--8-8-10---3-3-3-3-3-3-3-3-3-5-5-5-5-5-5-5-5-5-5--|
D|-0--0--0-0-0--0-0-0-0--8--8--8-8-8----3-3-3-3-3-3-3-3-3-3-3-3-3-3-3-3-3-3-3--|
A|-0--0--0-0-0--0-0-0-0--8--8--8-8-8----3-3-3-3-3-3-3-3-3----------------------|
E|-----------------------------------------------------------------------------|

[Bridge] 
(Distorted)
e|----------------------------------|
B|----------------------------------|
G|----------------------------------|
D|---0-0-15-15-0-0-15-15-0-15-0-15--|
A|---0-0-15-15-0-0-15-15-0-15-0-15--|
E|---0-0-15-15-0-0-15-15-0-15-0-15--|

e|----------------------------|
B|----------------------------|
G|----------------------------|
D|---0-0-15-15-0-0-15-15-0-15-|
A|---0-0-15-15-0-0-15-15-0-15-|
E|---0-0-15-15-0-0-15-15-0-15-|

e|----------------------------------|
B|----------------------------------|
G|----------------------------------|
D|---0-0-15-15-0-0-15-15-0-15-0-15--|
A|---0-0-15-15-0-0-15-15-0-15-0-15--|
E|---0-0-15-15-0-0-15-15-0-15-0-15--|

e|------------------------------------------|
B|------------------------------------------|
G|------------------------------------------|
D|---0-0-15-15-0-0-15-15-0-3-6--6-5-3-0-----|
A|---0-0-15-15-0-0-15-15-0-3-6--6-5-3-0-----|
E|---0-0-15-15-0-0-15-15-0-3-6--6-5-3-0-----|

e|----------------------------------|
B|----------------------------------|
G|----------------------------------|
D|---0-0-15-15-0-0-15-15-0-15-0-15--|
A|---0-0-15-15-0-0-15-15-0-15-0-15--|
E|---0-0-15-15-0-0-15-15-0-15-0-15--|

e|-------------------------------|
B|-------------------------------|
G|-------------------------------|
D|---0-0-15-15-0-0-15-15-0-0-0-0-|
A|---0-0-15-15-0-0-15-15-0-0-0-0-|
E|---0-0-15-15-0-0-15-15-0-0-0-0-|

e|----------------------------------|
B|----------------------------------|
G|----------------------------------|
D|---0-0-15-15-0-0-15-15-0-15-0-15--|
A|---0-0-15-15-0-0-15-15-0-15-0-15--|
E|---0-0-15-15-0-0-15-15-0-15-0-15--|

e|-----------------------|
B|-----------------------|
G|-----------------------|
D|---0-0-15-15-0-0-15-15-|
A|---0-0-15-15-0-0-15-15-|
E|---0-0-15-15-0-0-15-15-|

 Intro: 2x
e|--------------------------------------------------------|
B|--------------------------------------------------------|
G|----11-11-11-/-12---12---12---12-/--14-----10-10-9-9----|
D|-----x--x--x-/--x----x----x----x-/---x------8--8-8-8-10-|
A|-----9--9--9-/-10---10---10---10-/--12------8--8-8-8--8-|
E|--------------------------------------------8--8-8-8--8-|

[Chorus]
(Ditorted) x4
e|-----------------------------------------------------------------------------|
B|-----------------------10-10-9-9------5-5-5-5-5-5-5-5-5-5-5-5-5-5-5-5-5-5-5--|
G|-4--4--4-4/5--5-5-5/7--8--8--8-8-10---3-3-3-3-3-3-3-3-3-5-5-5-5-5-5-5-5-5-5--|
D|-0--0--0-0-0--0-0-0-0--8--8--8-8-8----3-3-3-3-3-3-3-3-3-3-3-3-3-3-3-3-3-3-3--|
A|-0--0--0-0-0--0-0-0-0--8--8--8-8-8----3-3-3-3-3-3-3-3-3----------------------|
E|-----------------------------------------------------------------------------|

[Riff] 
(Distorted) x2
e|-------------------------------------|
B|-------------------------------------|
G|-------------------------------------|
D|-----0-0-8-7-3-0-3h5-0-0-8-7-3-0-3-3-|
A|-----0-0-8-7-3-0-3h5-0-0-8-7-3-0-3-3-|
E|-----0-0-8-7-3-0-3h5-0-0-8-7-3-0-3-3-|

e|-----------------------------------------|
B|-----------------------------------------|
G|-----------------------------------------|
D|-----0-0-8-7-3-0-3h5-0-0-8-7-3-0-3-3-3-3-|
A|-----0-0-8-7-3-0-3h5-0-0-8-7-3-0-3-3-3-3-|
E|-----0-0-8-7-3-0-3h5-0-0-8-7-3-0-3-3-3-3-|


************************************

| /  Slide up
| x  Dead note
| h  Hammer-on

************************************
Suggest correction
comments
print report bad tab
12 comments total. Showing first comments.
+2 reply
llama_slap 338 Sep 10, 2005 08:00 PM

freakin awesome tab dude

+4 reply
guitarman47 132 Oct 31, 2005 10:39 PM

you're missing the harmonics buddy

+6 reply
epiphonist13 81 Jan 09, 2006 12:20 PM

i must say, great tab...i used it to perform...1 pointer though, in the beginning riff, it should be:
E --------------------------------------------------------|
B---------------------------------------------------------|
G---11-11-11-11-/-12---12---12---12-/--14-----10-10-9-9---|
D---x--x--x--x-/--x----x----x----x-/---x------8--8-8-8-10-|
A---9--9--9--9-/-10---10---10---10-/--12------8--8-8-8--8-|
D---0--0--0--0----0----0----0----0-----0------8--8-8-8--8-|
other wise, perfect tab!

guest
You may want to rate the tab now too:
select rating
Wanna post a correction for this tab? Suggest correction