Oops, an error
Loading. Please wait.

Heroes bass

version 1
version 1

Whole song

Interactive

2,614 views 1 this week
3 commentsread comments
1 2 3 4 5
x 7
add to favorites
×
Save as Personal and add changes to this tab that will be seen only by you. Learn more ›
×
You can save this tab as Personal to edit and correct it or add notes. All changes will be seen only by you. Learn more »
launch autoscroll
font size
0
reset
guitar tuner
edit
Autoscroll
slow
fast
+/-
esc
set tempo
stop
Difficulty
intermediate
Heroes by Shinedown

Tuning- D A D G

in the beginning, pause until the other guitar and bass comes in

(in the intros and verse’s when its 3-4-5 they are played pretty fast but I sperated 
so u could see it better…)

Intro 1
G:--------------------------------------------------|
D:-0-3-5-6-5-3--------------------------------------|
A:--------------------------------------------------|
D:--------------------------------------------------|

Intro 2
G:-----------------------------------------------------------------|
D:-----------------------------------------------------------------|
A:-3-4-5-3-4-5-3-4-5-3-4-5-3-4-5----3-4-5-3-4-5-3-4-5--------------|
D:--------------------------------------------------- 0-3-5-6-5-3--|

G:----------------------------------------------------------------|
D:---------------------------------------------------0-3-5-6-5-3--|
A:-3-4-5-3-4-5-3-4-5-3-4-5-3-4-5---3-4-5-3-4-5-3-4-5--------------|
D:----------------------------------------------------------------|

G:-----------------------------------------------------------------|
D:-----------------------------------------------------------------|
A:-3-4-5-3-4-5-3-4-5-3-4-5-3-4-5---3-4-5-3-4-5-3-4-5---------------|
 D:- -------------------------------------------------0-3-5-6-5-3--|
Verse 1
G:------------------------------------------|
D:------------------------------------------|
A:-5—--5-5-3---2---1-1-1-1-0-0--------------|
D:------------------------------------------|

G:-------------------------------|
D:-------------------------------|
A:-5---5-5-3----2----------------|
D:----------------0-3-5-6-5-3----|

Pre chorus
G:----------------------------------------------------------------|
D:---------------------------------------------------0-3-5-6-5-3--|
A:-3-4-5-3-4-5-3-4-5-3-4-5-3-4-5---3-4-5-3-4-5-3-4-5--------------|
D:----------------------------------------------------------------|


G:----------------------------------------------------------------|
D:----------------------------------------------------------------|
A:-3-4-5-3-4-5-3-4-5-3-4-5-3-4-5---3-4-5-3-4-5-3-4-5--------------|
D:---------------------------------------------------0-3-5-6-5-3--|


Chorus

G:------------------------------------------------|
D:------------------------------------------------|
A:-5—5-5-3-3(ring)--------------------------------|
D:-----------------5-5-5-3 (ring)-----------------|

G:------------------------------------------------|
D:------------------------------------------------|
A:-5—5-5-3-3(ring)--------------------------------|
D:-----------------3-3-2/7(ring)------------------|

G:------------------------------------------|
D:-------------------0-3-5-6-5-3------------|
A:-5—5-5—4-4-4-3-3—1------------------------|
D:------------------------------------------|

G:-----------------------------------|
D------------------------------------|
A:-5—5-5—4-4-4-----------------------|
D:-------------3-3-3---5-5-5(ring)---|


G:------------------------------------------|
D:------------------------------------------|
A:-5—5-5—4-4-4-3-3—1---1(ring)---3(ring)h4--|
D:------------------------------------------|

Post chorus 1

G:------------------------------------------|
D:------------------------------------------|
A:-3-4-5-3-4-5-3-4-5-3—4-5-3-4-5—---5-3-----|
D:------------------------------------------|

Verse 2


G:-----------------------------|
D:-----------------------------|
A:-5—-8\3—8\2 1-1-1-1 0-0------|
D:-----------------------------|

G:-----------------------------|
D:-----------------------------|
A:-5—-8\3—8\2------------------|
 D:-----------0-3-5-6-5-3------|

then play---

pre chorus

chorus

bridge
G:----------------|
D:----------------|
A:----------------|
D:-0-0(ring)------|

G:------------------------------------------------|
D:------------------------------------------------|
A:------------------------------------------------|
D:-3-3-3-3-0(ring)—3-3-5(ring)—3-3-0(ring)--------|

G:--------------------|
D:--------------------|
A:--------------------|
D:-5(ring)—3 (ring)---|

G:---------------------------------------------------------------|
D:---------------------------------------------------------------|
A:-----------------------------1-1-1-1---1-1-1---3-3-3-4(ring)---|
D:-3-3-3-3-0(ring)—3-3-5(ring)—----------------------------------|

then play this (below is after the bridge… also the second part of chorus with a little tweak)

G:------------------------------------------|
D:-------------------0-3-5-6-5-3------------|
A:-5—5-5—4-4-4-3-3—1------------------------|
D:------------------------------------------|

the end of this line is played quick but I separated it again
G:-----------------------------------------|
D:------------------5-3-0---0-3(ring)------|
A:-5—5-5—4-4-4------------3----------------|
D:-------------3-3-------------------------|

G:------------------------------------------|
D:------------------------------------------|
A:-5—5-5—4-4-4-3-3—1---1(ring)---3(ring)h4--|
D:------------------------------------------|

outro (like intro with some things taken away)

G:-----------------------------------------------------------------|
D:-----------------------------------------------------------------|
A:-3-4-5-3-4-5-3-4-5-3-4-5-3-4-5----3-4-5-3-4-5-3-4-5-3-4-5-3-4-5--|
D:-----------------------------------------------------------------|

G:-----------------------------------------------------------------|
D:-----------------------------------------------------------------|
A:-3-4-5-3-4-5-3-4-5-3-4-5-3-4-5----3-4-5-3-4-5-3-4-5--------------|
D:--------------------------------------------------- 0-3-5-6-5-3--|

            
            
Suggest correction
Creating personal tab
Creating personal tab
You can edit any tab online and save it as your Personal.

You can edit, replace or remove any tab part or add personal notes – all changes will be seen only by you.

Personal tabs can be accessed anytime from any device, even offline.
Learn more »
comments
print report bad tab
3 comments total.
0 reply
__Ronnie__ 1,009 Jan 16, 2007 01:16 PM

The instrument playing at the very beginning isnt on the the guitars, its the bass.

0 reply
__Ronnie__ 1,009 Jan 28, 2007 06:34 AM

I tabbed out the intro to the song and I think I got it, or at least I have it pretty close. It's pretty difficult since its played very fast. Just play this for the solo at the begniing and play the rest of the tab posted and you'll be good.

G---------------------------------------------------101110--
D-01214-01210-0910-01210-0910--01214-01410-0910-1014------14
A-----------------------------------------------------------
E-----------------------------------------------------------

Note all the 10's,11's,12's and 14's are tens, elevens, twelves and fourteens not one zero, one one, one two, etc...

0 reply
Bassistboy 10 Jun 03, 2007 02:39 PM

Close, but not correct.

guest
Wanna post a correction for this tab? Suggest correction