Oops, an error
Loading. Please wait.

Heroes bass

version 2
version 2

Whole song

Interactive

8,097 views 1 this week
4 commentsread comments
1 2 3 4 5
x 8
add to favorites
×
Save as Personal and add changes to this tab that will be seen only by you. Learn more ›
×
You can save this tab as Personal to edit and correct it or add notes. All changes will be seen only by you. Learn more »
launch autoscroll
font size
0
reset
guitar tuner
edit
Autoscroll
slow
fast
+/-
esc
set tempo
stop
Song: Heroes
Artist: Shinedown
Album: Us and Them
Tuning: Drop D

|===========================================================================|

Intro: (Part 1/Solo)
G|-----------------------------------------|
D|-0h14h15-0h14p12-0h10h12-0h14p12-0h10h12-|
A|-----------------------------------------|
D|-----------------------------------------|

G|---------------------------10-12-13-12-10-|
D|-0h14h15-0h14p12-0h12h12-12---------------|
A|------------------------------------------|
D|------------------------------------------|

Intro: (Part 2)
G|------------------------------------------------| 2x
D|------------------------------------0-3-5-6-5-3-|
A|-3-5-3-5-3-5-3-5-3-5---3-5-3-5-3-5--------------|
D|0---0---0---0---0-----0---0---0-----------------|

G|------------------------------------------------|
D|------------------------------------------------|
A|-3-5-3-5-3-5-3-5-3-5---3-5-3-5-3-5--------------|
D|0---0---0---0---0-----0---0---0----0-3-5-6-5-3--|

Verse: (Part 2)
G|---r-----r---r---------r---r-----r---r--------------|
D|---e-----e---e---------e---e-----e---e--------------|
A|-5-s-553-s-2-s-2222----s-5-s-553-s-2-s--------------|
D|---t-----t---t-----356-t---t-----t---t-0-3-5-6-5-3--|

Pre-Chorus:
G|------------------------------------------------|
D|------------------------------------0-3-5-6-5-3-|
A|-3-5-3-5-3-5-3-5-3-5---3-5-3-5-3-5--------------|
D|0---0---0---0---0-----0---0---0-----------------|

G|------------------------------------------------|
D|------------------------------------------------|
A|-3-5-3-5-3-5-3-5-3-5---3-5-3-5-3-5--------------|
D|0---0---0---0---0-----0---0---0----0-3-5-6-5-3--|

Chorus:
G|---------------------------------1111111-|
D|-------------------------33333-1---------|
A|-3555-3----------3555-3------------------|
D|---------3555-3--------------------------|

G|---------------------------------|
D|---------------------------------|
A|-5--5--5--5--3--3--1-------------|
D|-^-------------------0-3-5-6-5-3-|
 "All my heroes..."

G|------------------------------------------------------------------|
D|------------------------------------------------------------------|
A|-5--5--5--5--------------5--5--5--5-3-3-2-2--2--2--2--2-3-3--5555-|
D|-^-----------5--5--5--5--^----------------------------------------|
 "Sold their sorrow..."   "All my heroes..."
Post-Chorus
G|--------------------------|
D|--------------------------|
A|-3-5-3-5-3-5-3-5-3-5------|
D|0---0---0---0---0----0----|

-->Verse
-->Pre-Chorus
-->Chorus

Bridge:
G|------r---------------------------------------------------------|
D|------e--333333------3-3-5--3-3----5--53--3--3333-3------3-3-5--|
A|-5-5--s---------5-5-------------5---55--33----------5-5---------|
D|------t---------------------------------------------------------|

G|-------r-----r---------------------|
D|-------e-----e---------------------|
A|-------s-----s---------------------|
D|-55555-t-555-t-5-5555555566666666--|

-->Chorus

Outro:
G|------------------------------------------------------------------|
D|------------------------------------------------------------------|
A|-3-5-3-5-3-5-3-5-3-5---3-5-3-5-3-5-3-5-3-5---3-5-3-5-3-5-3-5-3-5--|
D|0---0---0---0---0-----0---0---0---0---0-----0---0---0---0---0-----|

G|------------------------------------------------|
D|------------------------------------------------|
A|-3-5-3-5-3-5------------------------------------|
D|0---0---0----0-3-5-6-5-3------------------------|

|===========================================================================|
| /  slide up    |                                                          |
| \  slide down  |==========================================================|
| h  hammer-on   | This tab took a lot of work, just listen closely for the |
| p  pull-off    | timing.                                                  |
| ~  vibrato     |==========================================================|
| +  harmonic    |                                                          |
| x  Mute note   |                                                          |
|===========================================================================|
Suggest correction
Creating personal tab
Creating personal tab
You can edit any tab online and save it as your Personal.

You can edit, replace or remove any tab part or add personal notes – all changes will be seen only by you.

Personal tabs can be accessed anytime from any device, even offline.
Learn more »
comments
print report bad tab
4 comments total. Showing first comments.
0 reply
Bassistboy 10 Jun 09, 2007 04:31 AM

I think you hit the nail on the head with this one!

0 reply
Bass Pants 1,920 Jun 17, 2007 03:23 PM

i love it 5 stars

+1 reply
punkrockheals 10 Mar 29, 2008 11:12 AM

sick. awesome song. awesome tab.

guest
You may want to rate the tab now too:
select rating
Wanna post a correction for this tab? Suggest correction