Oops, an error
Loading. Please wait.

Heroes bass

version 3
version 3

Whole song

Interactive

2,325 views 1 this week
no commentswrite comment
1 2 3 4 5
x 3
add to favorites
×
Save as Personal and add changes to this tab that will be seen only by you. Learn more ›
×
You can save this tab as Personal to edit and correct it or add notes. All changes will be seen only by you. Learn more »
launch autoscroll
font size
0
reset
guitar tuner
edit
Autoscroll
slow
fast
+/-
esc
set tempo
stop
Heroes
Shinedown
Us and Them

Tabbed by: Mastabassist666

\ - Slide down
h - hammer on
/ - slide up
p - pull off
v - vibrato
b - bend
br - bend release
x - dead note

NOTE: Most bends in this song are 1/2 bends, so figure it out.
Also, Best read if opened and printed in 'Notepad'
Tuning: drop D
Tempo: 82 bpm
4-4 Time

4-string or 5-string acceptable. Tab in 4 string

Difficulty: Intermediate

Intro Bass Solo - Overdrive____________________________\ Clean
                                                       /

G|---9-10---9-7---5-7---9-7---5-7--|---9-10---9-7---5-7------------------|
D|-0------0-----0-----0-----0------|-0------0-----0-----0-3-5-5br-(5)h-3-|
A|---------------------------------|-------------------------------------|
D|---------------------------------|-------------------------------------|

Intro prt 2

|--------------------------------|------------------------------------|
|--------------------------------|------------------------------------|
|---3-5---3-5---3-5---3-5---3-5--|---3-5---3-5---3-5------------------|
|-0-----0-----0-----0-----0------|-0-----0-----0-----0-3-5-5br-(5)h-3-|

|--------------------------------|------------------------------------|
|--------------------------------|---------------------3-5-5br-(5)h-3-|
|---3-5---3-5---3-5---3-5---3-5--|---3-5---3-5---3-5------------------|
|-0-----0-----0-----0-----0------|-0-----0-----0-----0----------------|

|--------------------------------|------------------------------------|
|--------------------------------|------------------------------------|
|---3-5---3-5---3-5---3-5---3-5--|---3-5---3-5---3-5------------------|
|-0-----0-----0-----0-----0------|-0-----0-----0-----0-3-5-5br-(5)h-3-|

Verse 1

|------------------|-----------------------|------------------|------------------------|
|------------------|-----------------------|------------------|------------------------|
|-5------5-5-3-----|--2------1-1-1-1-------|-5------5-5-3-----|--2---------------------|
|------------------|-----------------0-3/5-|------------------|---------3-5-5br-(5)h-3-|


|--------------------------------|------------------------------------|
|--------------------------------|---------------------3-5-5br-(5)h-3-|
|---3-5---3-5---3-5---3-5---3-5--|---3-5---3-5---3-5------------------|
|-0-----0-----0-----0-----0------|-0-----0-----0-----0----------------|

|--------------------------------|------------------------------------|
|--------------------------------|------------------------------------|
|---3-5---3-5---3-5---3-5---3-5--|---3-5---3-5---3-5------------------|
|-0-----0-----0-----0-----0------|-0-----0-----0-----0-3-5-5br-(5)h-3-|

Chorus

|-----------------------------|-----------------------------|-----------------------------|
|-----------------------------|-----------------------------|-----------------------------|
|-3/5-5-5-x-x-3-------3-3-x-x-|-----------------------------|-3/5-5-5-x-x-3-------3-3-x-x-|
|-----------------------------|-3/5-5-5-x-x-3-------3-3-x-x-|-----------------------------|

|--------------------------------------|----------------------------|--------------------------------|
|--------------------------------------|----------------------------|-----------------3-5-5br-(5)h-3-|
|-8--8-8-8-8\7--7/12-12-12-12-12-12-12-|-5--5-5-5-5-5----5--5-5-x-x-|-3--3-3--3-1---1----------------|
|--------------------------------------|----------------------------|--------------------------------|

|----------------------------|-------------------------------------|----------------------------|
|----------------------------|-------------------------------------|----------------------------|
|-5--5-5-5-5-5----5--5-5-x-x-|-------------10-10-10-10-10-10-10-10-|-5--5-5-5-5-5----5--5-5-x-x-|
|----------------------------|-3----3---3/-------------------------|----------------------------|

|-------------------------|---------------------|----------------------------|
|-------------------------|---------------------|----------------------------|
|-3--3-3-x-x-1---1-1------|-1----1----1----1----|-1/3-3--3--3-3/4-4--4-4-4-4-|
|-------------------------|---------------------|----------------------------|

|--------------------------------|        |-----------|        |
|--------------------------------|        |-----------|        |
|---3-5---3-5---3-5---3-5---3-5--|2/4 time|---3-------|4/4 time|
|-0-----0-----0-----0-----0------|        |-0---------|        |

Verse 2

|------------|-----------------------|------------|------------------------|
|------------|-----------------------|------------|------------------------|
|----8\3--8\-|--2------1-1-1-1-------|----8\3--8\-|--2---------------------|
|-0----------|-----------------0-3/5-|-0----------|---------3-5-5br-(5)h-3-|

|--------------------------------|------------------------------------|
|--------------------------------|---------------------3-5-5br-(5)h-3-|
|---3-5---3-5---3-5---3-5---3-5--|---3-5---3-5---3-5------------------|
|-0-----0-----0-----0-----0------|-0-----0-----0-----0----------------|

|--------------------------------|------------------------------------|
|--------------------------------|------------------------------------|
|---3-5---3-5---3-5---3-5---3-5--|---3-5---3-5---3-5------------------|
|-0-----0-----0-----0-----0------|-0-----0-----0-----0-3-5-5br-(5)h-3-|

Play the Chorus Again

Guitar Solo

|------------|--------------------|-----------------------|----------------------|---------------|
|------------|--------------------|-----------------------|----------------------|---------------|
|------------|--------------------|-----------------------|----------------------|---------------|
|-0--0-------|-3-3-3-3-3-3-0------|-3--x-3-x-x-5------x-x-|-3--x-3-x-x-0------x--|-5------3------|

|---------------------------|-------------------------|------------------------|
|---------------------------|-------------------------|------------------------|
|---------------------------|-------------------------|-1-1-1-1-1----1-1-1-----|
|-3-3-3-3-3--0------0-0-x-x-|--3--x-3-x-x-5------5--x-|------------------------|

|-----------------------------|
|-----------------------------|
|-3-3--3--3-3-3--4-4--4-4-4-4-|
|-----------------------------|

Chorus

|----------------------------|--------------------------------|----------------------------|
|----------------------------|-----------------3-5-5br-(5)h-3-|----------------------------|
|-5--5-5-5-5-5----5--5-5-x-x-|-3--3-3--3-1---1----------------|-5--5-5-5-5-5----5--5-5-x-x-|
|----------------------------|--------------------------------|----------------------------|

|-------------------------------------|----------------------------|
|-------------------------------------|----------------------------|
|-------------10-10-10-10-10-10-10-10-|-5--5-5-5-5-5----5--5-5-x-x-|
|-3----3---3/-------------------------|----------------------------|

|-------------------------|---------------------|----------------------------|
|-------------------------|---------------------|----------------------------|
|-3--3-3-x-x-1---1-1------|-1----1----1----1----|-1/3-3--3--3-3/4-4--4-4-4-4-|
|-------------------------|---------------------|----------------------------|

Outro

|--------------------------------|     |------------------------------------|
|--------------------------------|     |------------------------------------|
|---3-5---3-5---3-5---3-5---3-5--|     |---3-5---3-5---3-5------------------|
|-0-----0-----0-----0-----0------| X 3 |-0-----0-----0-----0-3-5-5br-(5)h-3-|

END

If you have any questions, send me a comment at Ultimate-Guitar. Enjoy a good tab!

            
            
Suggest correction
Creating personal tab
Creating personal tab
You can edit any tab online and save it as your Personal.

You can edit, replace or remove any tab part or add personal notes – all changes will be seen only by you.

Personal tabs can be accessed anytime from any device, even offline.
Learn more »
Give kudos to tab author, rate the tab!
1 2 3 4 5
comments
print report bad tab
guest
You may want to rate the tab now too:
select rating
Wanna post a correction for this tab? Suggest correction