Oops, an error
Loading. Please wait.

I Dare You tab

version 5
version 5

Interactive

3,663 views 1 this week
5 commentsread comments
1 2 3 4 5
x 7
add to favorites
×
Save as Personal and add changes to this tab that will be seen only by you. Learn more ›
×
You can save this tab as Personal to edit and correct it or add notes. All changes will be seen only by you. Learn more »
launch autoscroll
font size
0
reset
how to read this tab
guitar tuner
edit
Autoscroll
slow
fast
+/-
esc
set tempo
stop
Artist:Shinedown
Song:I dare you
This song has a realy cool and easy solo to play and also the chorus. The verse is a 
tricky but with a little practice you should be able to get it. E-mail me if you see 
wrong. Bradfurd7@juno.com Enjoy. Please Rate.

XB-Rad'sGUitARX

Intro                                  x2 Verse                            x6
E|--------------------------------------|--------------------------------------|
B|--------------------------------------|--------------------------------------|
G|---------6-6-6--9-9--6-6---6-6-6------|---------6-6-6--9-9--6-6---6-6-6------|
D|-7-7-7---7-7-7--7-7--7-7---7-7-7--9-9-|-7-7-7---7-7-7--7-7--7-7---7-7-7--9-9-|
A|-0-0-0---0-0-0--0-0--0-0---9-9-9--0-0-|-0-0-0---0-0-0--0-0--0-0---9-9-9--0-0-|
D|--------------------------------------|--------------------------------------|
Pre-chorus
E|--------------------------------------------------------------|
B|--------------------------------------------------------------|
G|-22222222-44444444-7-6-7-6-4-22222222-44444444-77777777-77-77-|
D|-22222222-44444444-7-6-7-6-4-22222222-44444444-77777777-77-77-|
A|-00000000-22222222-5-4-5-4-2-00000000-22222222-55555555-55-55-|
D|--------------------------------------------------------------|
Chorus
E|------------------------------------------------------------------------------------------|
B|------------------------------------------------------------------------------------------|
G|-22222222-66667777--22222222-66667777-444444-6666777777--22222222-66667777--22222222-66667|
D|-22222222-66667777--22222222-66667777-444444-6666777777--22222222-66667777--22222222-66667|
A|-00000000-44445555--00000000-44445555-222222-4444555555--00000000-44445555--00000000-44445|
D|------------------------------------------------------------------------------------------|
Verse                                  x8
E|--------------------------------------|
B|--------------------------------------|
G|---------6-6-6--9-9--6-6---6-6-6------|
D|-7-7-7---7-7-7--7-7--7-7---7-7-7--9-9-|
A|-0-0-0---0-0-0--0-0--0-0---9-9-9--0-0-|
D|--------------------------------------|
Pre-chorus
E|--------------------------------------------------------------|
B|--------------------------------------------------------------|
G|-22222222-44444444-7-6-7-6-4-22222222-44444444-77777777-77-77-|
D|-22222222-44444444-7-6-7-6-4-22222222-44444444-77777777-77-77-|
A|-00000000-22222222-5-4-5-4-2-00000000-22222222-55555555-55-55-|
D|--------------------------------------------------------------|
Chorus
E|------------------------------------------------------------------------------------------|
B|------------------------------------------------------------------------------------------|
G|-22222222-66667777--22222222-66667777-444444-6666777777--22222222-66667777--22222222-66667|
D|-22222222-66667777--22222222-66667777-444444-6666777777--22222222-66667777--22222222-66667|
A|-00000000-44445555--00000000-44445555-222222-4444555555--00000000-44445555--00000000-44445|
D|------------------------------------------------------------------------------------------|
Solo
E|------------------------------------------------------------------------------------------|
B|------------------------------------------------------------------------------------------|
G|-------------------13-13-15-15-17-17-18-18-17-17-15-15-17-17-18-18-17-17-15h17-15---------|
D|-13-13-15-15-17-17----------------------------------------------------------------18-18-17|
A|------------------------------------------------------------------------------------------|
D|------------------------------------------------------------------------------------------|
                                                 Intro                     x2
E|-----------------------------------------------|--------------------------------------|
B|-----------------------------------------------|--------------------------------------|
G|-------------------13-13-15-15-----------------|---------6-6-6--9-9--6-6---6-6-6------|
D|-13-13-15-15-17-17-------------17-17-18-18-20b-|-7-7-7---7-7-7--7-7--7-7---7-7-7--9-9-|
A|-----------------------------------------------|-0-0-0---0-0-0--0-0--0-0---9-9-9--0-0-|
D|-----------------------------------------------|--------------------------------------|
Chorus
E|------------------------------------------------------------------------------------------|
B|------------------------------------------------------------------------------------------|
G|-22222222-66667777--22222222-66667777-444444-6666777777--22222222-66667777--22222222-66667|
D|-22222222-66667777--22222222-66667777-444444-6666777777--22222222-66667777--22222222-66667|
A|-00000000-44445555--00000000-44445555-222222-4444555555--00000000-44445555--00000000-44445|
D|------------------------------------------------------------------------------------------|
Solo Guitar 1                                   x4 Guitar 2         x4
E|-----------------------------------------------|-------------------|
B|-----------------------------------------------|-------------------|
G|-------------------13-13-15-15-----------------|-22222222-66667777-|
D|-13-13-15-15-17-17-------------17-17-18-18-20b-|-22222222-66667777-|
A|-----------------------------------------------|-00000000-44445555-|
D|-----------------------------------------------|-------------------|

            
            
Suggest correction
Creating personal tab
Creating personal tab
You can edit any tab online and save it as your Personal.

You can edit, replace or remove any tab part or add personal notes – all changes will be seen only by you.

Personal tabs can be accessed anytime from any device, even offline.
Learn more »
comments
print report bad tab
5 comments total. Showing first comments.
+1 reply
MT's #1 Fan 30 Oct 31, 2006 03:53 AM

okay. you needed more bends in those solos. and you missed a chord in the pre-chorus. but it was okay

+1 reply
staind915 300 Jul 29, 2007 08:46 PM

ok and why did you put it in drop D when youre not even using the last low E string? if thats a mistake i just wanted to point it out to you incase it was

+2 reply
aceguitarock 293 Oct 26, 2007 07:20 PM

Alright, you need to update this tab. The tuning is supposed to be a half step-down (EB, Ab, Db, Gb, Bb, Eb) not drop D. And the Pre-Chorus should be:
|----------------------------------------------------------
|----------------------------------------------------------
|-------------------777-666-777-666-44-22------------------
|-22222222-44444444-777-666-777-666-44-22-22222222-44444444
|-22222222-44444444-555-444-555-444-22-00-22222222-44444444
|-00000000-22222222-----------------------00000000-22222222

|-------------------|
|-------------------|
|-77777777----------|
|-77777777-99-99-9--|
|-55555555-99-99-9--|
|----------77-77-7--|

And the Chorus should be:
|--------------------------------------------------------
|--------------------------------------------------------
|----------666-77777----------666-77777-444444-6-77777777
|-77777777-666-77777-77777777-666-77777-444444-6-77777777
|-77777777-444-55555-77777777-444-55555-222222-4-55555555
|-55555555-----------55555555----------------------------

guest
You may want to rate the tab now too:
select rating
Wanna post a correction for this tab? Suggest correction